Gametabs
Home
Tabs
Random

Player Miss

Average rating: 3.000

2 ratings

Composer:

Tabber:

Style:

Instrument:

Created: November 21, 2014 at 12:00 AM

            Player Miss


Lead

|-12-11----10-9----8-7-|
|-------12------10-----|
|----------------------|
|----------------------|
|----------------------|
|----------------------|


Harmony

|-12-11----10-9----8-7-|
|-------12------10-----|
|----------------------|
|----------------------|
|----------------------|
|----------------------|


Bass

|---------|---------|-----|
|---------|---------|-----|
|-7-7-7-7-|-7-7-7-7-|-7-7-|
|---------|---------|-----|
        
Comments

No comments yet