Gametabs
Home
Tabs
Random

Lost Painting

Average rating: 5.000

2 ratings

Composer:

Tabber:

Style:

Instrument:

Created: June 08, 2013 at 12:00 AM

            Lost Paintings
Castlevania: Symphony of the Night
Composed by: Michiru Yamane
Tabbed by Bacardi
6/4/13

Tabbed for solo guitar

e|--14---12--14--------|------------------------------------|
B|---------------14~---|--12-------12-12--------------------|
G|---------------------|-------14----------13----------11---|
D|---------------------|--------------------------14--------|
A|---------------------|------------------------------------|
E|---------------------|------------------------------------|

e|-----------21----20----17---19----16----18----15---|
B|-----19--------------------------------------------|
G|--------18----17---------16----------15------------|
D|--16----------------19---------18----------17------|
A|---------------------------------------------------|
E|---------------------------------------------------| x4

e|-----9~-----7--9----------------------------------|
B|--7---------------10--9----7--9-10-9---------7~---|
G|----------------------------------------9---------|
D|--------------------------------------------------|
A|--------------------------------------------------|
E|--------------------------------------------------| x2

e|--9--7~-------7--9------------|--9--7~------7--9---12--10--9---|
B|-----------10-------9--9------|----------10--------------------|
G|--------------------------6~--|--------------------------------|
D|------------------------------|--------------------------------|
A|------------------------------|--------------------------------|
E|------------------------------|--------------------------------|

e|--------16-17-16-------------|--------16-17-21--------------|
B|--19~------------17-17-------|--19~------------21-21--------|
G|-----------------------18~---|-----------------------18~----|
D|-----------------------------|------------------------------|
A|-----------------------------|------------------------------|
E|-----------------------------|------------------------------|

e|--21---19-21-17~----19-16~---|--17--19--17--16---|----------21--|
B|-----------------------------|-------------------|------21------|
G|-----------------------------|-------------------|--18----------|
D|-----------------------------|-------------------|--------------|
A|-----------------------------|-------------------|--------------|
E|-----------------------------|-------------------|--------------|

e|-----9~-----7--9----------------------------------|
B|--7---------------10--9----7--9-10-9---------7~---|
G|----------------------------------------9---------|
D|--------------------------------------------------|
A|--------------------------------------------------|
E|--------------------------------------------------| 

e|--9-------9-12---11---------|--9-------9-12---11-12-14--|
B|-------12------------12-----|-------12------------------|
G|-------------------------11-|---------------------------|
D|----------------------------|---------------------------|
A|----------------------------|---------------------------|
E|----------------------------|---------------------------|

e|--14-16-17---16-17-16---------------14------14--------------|----------------------------------------|
B|----------------------17-14~-------------17----17-14--------|--12----12------------12-----14-12-14~--|
G|-----------------------------------------------------14~----|-----14--------12-14--------------------|
D|------------------------------------------------------------|----------------------------------------|
A|------------------------------------------------------------|----------------------------------------|
E|------------------------------------------------------------|----------------------------------------|

e|--9-------9-12---11---------|--9-------9-12---11-12-14--|
B|-------12------------12-----|-------12------------------|
G|-------------------------11-|---------------------------|
D|----------------------------|---------------------------|
A|----------------------------|---------------------------|
E|----------------------------|---------------------------|

e|--14-16-17---16-17-19-16---------14--16-17-16---------|-----------------------------|
B|-------------------------17~------------------17------|-----------------------------|
G|-------------------------------------------------16~--|--14---13-11-13----------11~-|
D|------------------------------------------------------|-----------------14-11-------|
A|------------------------------------------------------|-----------------------------|
E|------------------------------------------------------|-----------------------------|
        
Comments

No comments yet