Gametabs
Home
Tabs
Random

Wandering the Crystal Blue

Average rating: 5.000

10 ratings

Composer:

Tabber:

Style:

Instrument:

Created: July 31, 2009 at 12:00 AM

                                 Wandering the Crystal Blue GUITAR TAB
               Composed by Michiru Yamane and Yasuhiro Ichihashi

             Arranged & tabbed by Auriplane ([email protected])


Nate requested this, and I'm not sure all of it is too playable, but here it is
anyway :-)  I mostly tried to put the notes from my piano arrangement onto solo
guitar.

Standard tuning, capo on 5.



    Part A

     |-3-|                  |-3-|
     S S S E  Q    E  E     S S S E  S S S S S S S S
e||----------------------|---------------------------|
B||----------------------|---------------------------|
G||--4p2p0---------------|--4p2p0--------------0-2-4-|
D||-----------2----2-----|---------------0-2-3-------|
A||--------2----------2--|--------3--2-3-------------|
E||--0-------------------|--1------------------------|


  |-3-|    |-3-| |-3-| |-3-| |-3-|    |-3-|    |-3-|    |-3-|
  S S S E  S S S S S S S S S S S S    S S S E  S S S E  S S S E
-----------------------------------|--3--------------------------|
-----------------------------3h5h6-|----6---0--3-1------0--------|
--4p2p0----------------2h4h5-------|------5--------0------2------|
-----------------2h4h5-------------|-----------------3------3----|
--------2--2h4h5-------------------|--------------------------3--|
--0--------------------------------|-----------------------------|


  |-3-|                     |-3-|    |-3-| |-3-| |-3-| |-3-|
  S S S E  E  E  S S S S    S S S E  S S S S S S S S S S S S
-------------------------|-----------------------------------|
-------------------------|-----------------------------3h5h6-|
--4p2p0----------------0-|--4p2p0----------------2h4h5-------|
-----------------0-2-3---|-----------------2h3h5-------------|
--------2--2--3----------|--------3--2h3h5-------------------|
--0----------------------|--1--------------------------------|


  |-3-| |-3-| |-3-| |-3-| |-3-| |-3-|    |-3-| |-3-| |-3-| |-3-| |-3-| |-3-|
  S S S S S S S S S S S S S S S S S S    S S S S S S S S S S S S S S S S S S
--3p2p0-------------------------------|--------------------------------------|
--------3p1h3-5p3p1-------------------|--------------------------------------|
--------------------4p2h4-5p4p2-------|--2p0---------------------------------|
--------------------------------5p4h5-|------3-2p0h2-3p2p0-------------------|
--------------------------------------|--------------------3p2h3-5p3p2-------|
--0-----------------------------------|--------------------------------5p3h5-|



    Part B

  E  E  E  E  E  E     E  E  E  E  E  E     E  E  E  E  E  E     E  E  E  E  E  E
--------------------|--------------------|--------------------|--------------------|
--------0-----------|--0-----------------|--------0-----------|--0-----------------|
--------0-----0--2--|--0-----0-----0-----|--------0-----0--2--|--0-----0-----0-----|
--2-----------2-----|--------------------|--2-----------2-----|--------------------|
--2--2-----2-----2--|-----3-----3-----3--|--4--4-----4-----4--|-----3-----3-----3--|
--0-----------------|--0-----------------|--0-----------------|--0-----------------|


  E  E  E  E  E  E     E  E  E  E  E  E     E  E  E  E  E  E     E  E  E  E  E  E
--3-----2-----------|--2-----0-----------|--------------------|--------------------|
--0-----------0-----|--0-----------------|--3-----------------|--------------------|
--------0-----0-----|--------0-----0-----|--2-----2-----2-----|--4-----------------|
--------------------|--------------2-----|--2-----------------|--4-----4-----4-----|
-----2-----2-----2--|-----3-----3-----3--|--0--3-----3-----3--|--5--5-----5-----5--|
--0-----------------|--0-----------------|--------------------|--7-----------------|


  E  E  E  E  E  E     E  E  E  E  E  E     E  E  E  E  E  E     E  E  E  E  E  E
--------------------|--------------------|--------------------|--------------------|
--------0-----------|--0-----------------|--------0-----------|--0-----------------|
--------0-----0--2--|--0-----0-----0-----|--------0-----0--2--|--0-----0-----0-----|
--2-----------2-----|--------------------|--2-----------2-----|--------------------|
--2--2-----2-----2--|-----3-----3-----3--|--4--4-----4-----4--|-----3-----3-----3--|
--0-----------------|--0-----------------|--0-----------------|--0-----------------|


  E  E  E  E  E  E     E  E  E  E  E  E     E  E  E  E  E  E     E  E  E  E  E  E
--------------------|--------------------|--------------------|--------------------|
--0-----------------|--------------------|-----------------0--|--0-----------------|
--------2-----------|--------------------|--------------0--0--|--------2-----------|
--2-----2-----2--2--|--2-----4-----0-----|--2-----2--4--2-----|--2-----2-----2-----|
-----3-----3-----3--|--2-----5-----2-----|--2--2-----2-----2--|-----4-----4--4-----|
--5-----------------|-----2-----2-----2--|--0-----------------|--5--------------5--|


  E  E  E  E  E  E     E  E  E  E  E  E     E  E  E  E  E  E     E  E  E  E  E  E
--------------------|--------------0-----|--------------------|--------------------|
-----------------0--|--3-----2-----2-----|--1-----0-----------|--------------------|
--------------0--0--|--0-----2-----0-----|--------0-----0--0--|--0-----------------|
--2-----2--4--2-----|--------2-----2-----|--2--2-----2-----2--|--0-----4--------0--|
--2--2-----2-----2--|-----4-----4-----4--|--3--------------3--|-----0--5--0--2-----|
--0-----------------|--5-----------------|--------------------|--------------------|

                                   |-3-| |-3-|
  E  E  E  E  E  E     E  E  E  E  S S S S S S
--------------------|-----------0--------------|
--------------------|--0--1--3-----------3h5h7-|
--------------0--2--|--------------2h4h5-------|
--2--------4--------|-----------2--------------|
--2--0--2-----------|-----0--2-----------------|
--0--------2--0--2--|--3-----------------------|



    Part C

  E  E  E  E  E  E     E  E  E  E  E  E     E  E  E  E  E  E     E  E  E  E  E  E
--0-----------------|--0-----3-----0-----|--0-----------------|--------------------|
-----3--------0-----|-----3--------------|--0--3--------0-----|--------------------|
--2-----2-----------|--2--2--2-----2-----|--------2-----------|--2--0--------------|
-----2--2-----------|--------3-----------|-----2--2-----2-----|--2-----0-----2-----|
-----3-----3-----3--|-----3-----3-----3--|-----2-----2-----2--|-----2-----2-----0--|
--1-----------1-----|--1-----------1-----|--0-----------------|--0-----3-----3-----|


  E  E  E  E  E  E     E  E  E  E  E  E     E  E  E  E  E  E     E  E  E  E   E  E
--0-----------------|--0-----7-----5-----|--1--3--0--2--3--5--|--7-----8-----10-----|
-----3--------0-----|-----3--0-----0-----|--0--0--0--0--0--0--|-----0-----0------0--|
--2-----2-----------|--2-----------------|--------------------|--9-----9------9-----|
-----3-----3--------|-----3-----3--------|--------2-----2-----|---------------------|
--------3-----3-----|--------3--------0--|-----2-----2-----2--|--7------------------|
--1--------------3--|--1-----------3-----|--0-----------------|---------------------|


  E  E  E  E  E  E     E  E  E  E  E  E     E  E  E  E  E  E      E  E  E  E  E  E      E  E  E  E  E  E
--7-----5--------0--|--0--2--------------|--7-----5--------7--|--10-----------8-----|--10-----------8-----|
--5-----5--------0--|--0--0--3--------3--|--5-----5--------0--|---6-----------6--6--|---6-----6-----6-----|
--------2--------2--|--------4-----4-----|-----------0--2-----|---------5-----5-----|------5-----5-----5--|
-----2--------2-----|-----4-----4--------|-----0--2-----------|------7-----7--------|---7-----------------|
--0--------3--------|--2-----------------|--3-----------------|---8-----------------|---------------------|
--------------------|--------------------|--------------------|---------------------|---------------------|


  E  E  E  E  E  E     E  E  E  E  E  E     E  E  E  E  E  E  E  E  E  E  E  E
--7-----0-----------|--7-----0-----------|--7-----0-----------|--7-----0-----------|
--0-----------0-----|--0-----------0-----|--0-----------0-----|--0-----------0-----|
--------0-----------|--------0-----0-----|--------0-----0-----|--------0-----0-----|
--------------2-----|--------------------|-----0-----0-----0--|--------------------|
-----2-----2-----2--|-----4-----4-----4--|--------------------|-----4-----4-----4--|
--0-----------------|--0-----------------|--0-----------------|--0-----------------|

    Now, play Parts B and C again.



    Part D
                                                                                      ^
  E  E  E  E  E  E     E  E  E  E  E  E     E  E  E  E  E  E     E  E  E  E  E  E     H.
--7-----0-----------|--7-----0-----------|--7-----0-----------|--7-----0-----------|--7------------||
--0-----------0-----|--0-----------0-----|--0-----------0-----|--0-----------0-----|--5------------||
--------0-----------|--------0-----0-----|--------0-----0-----|--------0-----0-----|--4------------||
--------------2-----|--------------------|-----0-----0-----0--|--------------------|--2------------||
-----2-----2-----2--|-----4-----4-----4--|--------------------|-----4-----4-----4--|--2------------||
--0-----------------|--0-----------------|--0-----------------|--0-----------------|--0------------||











Duration Legend
---------------
W - whole
H - half
Q - quarter
E - 8th
S - 16th
. - note dotted
|-n-|  - n-tuplets


Tablature Legend
----------------
L - tied note
h - hammer on
p - pull off
^ - brush up

        
Comments

@cachua1506 (July 31, 2009 at 11:51 AM)

I wanna play this piece after hearing your piano cover, now thank you... I can try it But I am not sure about the intro,was that playable ? >.<


@TheDoomOfAllFires (July 31, 2009 at 1:14 PM)

Sounds awesome though.


@Candorous1 (July 31, 2009 at 4:32 PM)

It all depends on how hardcore you are. ;} I have over 600 songs in my USB that i will play when I get back to school :O


@natenmn (July 31, 2009 at 6:52 PM)

Why, oh why is there only a 5 star limit? D:

This is my new favorite tab by far, auri! It deserves 10 stars! It's so accurate to the piano version, too o_O. Thank you SO much :D.

I'm going to reiterate that the intro is pretty killer, but I believe it is perfectly feasible with enough practice once it is hammered into muscle memory. The first few measures aren't extremely difficult, but the super long legato part is pretty damn hard because there is no break lol. This will be one I that I'll practice every day, auri :)

Again, thank you for the amazing tab!


@cosmicz (August 01, 2009 at 5:02 PM)

I didn't think I would recognize a Castelvania song if I heard one but I was wrong.

Very nice work.

oops. forgot to give it a rating. 5/5


@vvvw (July 05, 2011 at 4:42 PM)

Someone record this!


@GabrielBocanegra (February 05, 2021 at 5:55 PM)

Auriplane is a madwoman! I mean that with all due respect x)