Gametabs
Home
Tabs
Random

Mortivia Aqueduct

Average rating: No ratings

Composer:

Tabber:

Style:

Instrument:

Created: February 21, 2019 at 12:00 AM

            Mortivia Aqueduct
Castlevania Curse of Darkness
Tabbed by Welde Juniory (first tab XD)
21/02/19

e---------------------------------------------------------------------------------------------------------------------------------
B----6---------5-5-5-5---8-8-8---7-7-7-7---6-6-6-----5-5-5-5---8-8-8---7-7-7-7---6-6-6--------------------------------------------
G-5-----7-------------------------------------------------------------------------------------------------------------------------
D---------------------------------------------------------------------------------------------------------------------------------
A---------------------------------------------------------------------------------------------------------------------------------
E---------------------------------------------------------------------------------------------------------------------------------


e-7-7-7------5-7-5-7-----5-7-5-7--10-8-7--5---5------5------7-7-7------5-7-5-7-----5-7-5-7--10-8-7--5---5------5------------------
B-------8------------8----------------------8----7-8--------------8------------8----------------------8----7-8--------------------
G---------------------------------------------------------------------------------------------------------------------------------
D---------------------------------------------------------------------------------------------------------------------------------
A---------------------------------------------------------------------------------------------------------------------------------
E---------------------------------------------------------------------------------------------------------------------------------


e---------------------------------------------------------------------------------------------------------------------------------
B----------------------------------------10-10-10---------------------------------------------------------------------------------
G--5-5-5---7-7-7----11-11-11----9-9-9--------------9-9-9----10-10-10-----7-7-7----9-9-9-------------------------------------------
D---------------------------------------------------------------------------------------------------------------------------------
A---------------------------------------------------------------------------------------------------------------------------------
E---------------------------------------------------------------------------------------------------------------------------------

e-7-7-7------5-7-5-7-----5-7-5-7--10-8-7--5---5------5------7-7-7------5-7-5-7-----5-7-5-7--10-8-7--5---5------5------------------
B-------8------------8----------------------8----7-8--------------8------------8----------------------8----7-8--------------------
G---------------------------------------------------------------------------------------------------------------------------------
D---------------------------------------------------------------------------------------------------------------------------------
A---------------------------------------------------------------------------------------------------------------------------------
E---------------------------------------------------------------------------------------------------------------------------------


e-12-10-8----------12-10-8----------10-8---------------------------8-------------------------------------------------------8-10---
B---------12-10-8----------12-10-8-------12-10-8----12-10-8----------12-10-8-------------8-10-12-10-8----8---------8-10-12--------
G------------------------------------------------11---------11-9-7-----------11-9-7-9-11--------------11---11-9-11----------------
D---------------------------------------------------------------------------------------------------------------------------------
A---------------------------------------------------------------------------------------------------------------------------------
E---------------------------------------------------------------------------------------------------------------------------------


e-12-10-8--------------------------10-8------------10-8-------------8--------------------------------------------------8-10-8-10-12
B---------12-10-8--12-10-8--------------12-10-8---------12-10-8-------12-10-8-------10-8------------------8----8-10-12-------------
G--------------------------11-9-7---------------11--------------11------------11-9-------11-9--------9-11---11---------------------
D----------------------------------------------------------------------------------------------12-10-------------------------------
A----------------------------------------------------------------------------------------------------------------------------------
E----------------------------------------------------------------------------------------------------------------------------------

e----------------5-6---5-8-10-----10-8-6-5---8-6-5----6-5-----6-5---11-10-----------------------------------------------------------
B--8---6-------------8-----------------------------8--------5-----------------------------------------------------------------------
G----7---5-8---7------------------------------------------8-------------------------------------------------------------------------
D------------8----------------------------------------------------------------------------------------------------------------------
A-----------------------------------------------------------------------------------------------------------------------------------
E-----------------------------------------------------------------------------------------------------------------------------------

e----------------9-10-7-9-12--14-----14-12-10-9--12-10-9-7--10-9-----10-9---15-14---------------------------------------------------
B-7---5---8---7--------------------------------------------------8-9----------------------------------------------------------------
G---7---6---7-----------------------------------------------------------------------------------------------------------------------
D-----------------------------------------------------------------------------------------------------------------------------------
A-----------------------------------------------------------------------------------------------------------------------------------
E-----------------------------------------------------------------------------------------------------------------------------------


e---------------------------------------------------------------------------------------------------------------------------------
B--12-12-12---13-13-13---10-10-10---12----13----10---12---------------------------------------------------------------------------
G---------------------------------------------------------------------------------------------------------------------------------
D---------------------------------------------------------------------------------------------------------------------------------
A---------------------------------------------------------------------------------------------------------------------------------
E---------------------------------------------------------------------------------------------------------------------------------


e---------------------------------5------------------------------------------------------------------------------------------------
B--7-5---7-5---7-5---7-5---7-5------8-7-5-------5-------7-5---7-5---7-5---7-5---7-5-----5------------------------------------------
G------7-----7-----7-----7-----7----------7-6-7---6---------7-----7-----7-----7-----7-----7-6-7------------------------------------
D-----------------------------------------------------------------------------------------------7----------------------------------
A----------------------------------------------------------------------------------------------------------------------------------
E----------------------------------------------------------------------------------------------------------------------------------e---------------------------------------------------------------------------------------------------------------------------------
B----6---------5-5-5-5---8-8-8---7-7-7-7---6-6-6-----5-5-5-5---8-8-8---7-7-7-7---6-6-6--------------------------------------------
G-5-----7-------------------------------------------------------------------------------------------------------------------------
D---------------------------------------------------------------------------------------------------------------------------------
A---------------------------------------------------------------------------------------------------------------------------------
E---------------------------------------------------------------------------------------------------------------------------------


e-7-7-7------5-7-5-7-----5-7-5-7--10-8-7--5---5------5------7-7-7------5-7-5-7-----5-7-5-7--10-8-7--5---5------5------------------
B-------8------------8----------------------8----7-8--------------8------------8----------------------8----7-8--------------------
G---------------------------------------------------------------------------------------------------------------------------------
D---------------------------------------------------------------------------------------------------------------------------------
A---------------------------------------------------------------------------------------------------------------------------------
E---------------------------------------------------------------------------------------------------------------------------------


e---------------------------------------------------------------------------------------------------------------------------------
B----------------------------------------10-10-10---------------------------------------------------------------------------------
G--5-5-5---7-7-7----11-11-11----9-9-9--------------9-9-9----10-10-10-----7-7-7----9-9-9-------------------------------------------
D---------------------------------------------------------------------------------------------------------------------------------
A---------------------------------------------------------------------------------------------------------------------------------
E---------------------------------------------------------------------------------------------------------------------------------

e-7-7-7------5-7-5-7-----5-7-5-7--10-8-7--5---5------5------7-7-7------5-7-5-7-----5-7-5-7--10-8-7--5---5------5------------------
B-------8------------8----------------------8----7-8--------------8------------8----------------------8----7-8--------------------
G---------------------------------------------------------------------------------------------------------------------------------
D---------------------------------------------------------------------------------------------------------------------------------
A---------------------------------------------------------------------------------------------------------------------------------
E---------------------------------------------------------------------------------------------------------------------------------


e-12-10-8----------12-10-8----------10-8---------------------------8-------------------------------------------------------8-10---
B---------12-10-8----------12-10-8-------12-10-8----12-10-8----------12-10-8-------------8-10-12-10-8----8---------8-10-12--------
G------------------------------------------------11---------11-9-7-----------11-9-7-9-11--------------11---11-9-11----------------
D---------------------------------------------------------------------------------------------------------------------------------
A---------------------------------------------------------------------------------------------------------------------------------
E---------------------------------------------------------------------------------------------------------------------------------


e-12-10-8--------------------------10-8------------10-8-------------8--------------------------------------------------8-10-8-10-12
B---------12-10-8--12-10-8--------------12-10-8---------12-10-8-------12-10-8-------10-8------------------8----8-10-12-------------
G--------------------------11-9-7---------------11--------------11------------11-9-------11-9--------9-11---11---------------------
D----------------------------------------------------------------------------------------------12-10-------------------------------
A----------------------------------------------------------------------------------------------------------------------------------
E----------------------------------------------------------------------------------------------------------------------------------

e----------------5-6---5-8-10-----10-8-6-5---8-6-5----6-5-----6-5---11-10-----------------------------------------------------------
B--8---6-------------8-----------------------------8--------5-----------------------------------------------------------------------
G----7---5-8---7------------------------------------------8-------------------------------------------------------------------------
D------------8----------------------------------------------------------------------------------------------------------------------
A-----------------------------------------------------------------------------------------------------------------------------------
E-----------------------------------------------------------------------------------------------------------------------------------

e----------------9-10-7-9-12--14-----14-12-10-9--12-10-9-7--10-9-----10-9---15-14---------------------------------------------------
B-7---5---8---7--------------------------------------------------8-9----------------------------------------------------------------
G---7---6---7-----------------------------------------------------------------------------------------------------------------------
D-----------------------------------------------------------------------------------------------------------------------------------
A-----------------------------------------------------------------------------------------------------------------------------------
E-----------------------------------------------------------------------------------------------------------------------------------


e---------------------------------------------------------------------------------------------------------------------------------
B--12-12-12---13-13-13---10-10-10---12----13----10---12---------------------------------------------------------------------------
G---------------------------------------------------------------------------------------------------------------------------------
D---------------------------------------------------------------------------------------------------------------------------------
A---------------------------------------------------------------------------------------------------------------------------------
E---------------------------------------------------------------------------------------------------------------------------------


e---------------------------------5------------------------------------------------------------------------------------------------
B--7-5---7-5---7-5---7-5---7-5------8-7-5-------5-------7-5---7-5---7-5---7-5---7-5-----5------------------------------------------
G------7-----7-----7-----7-----7----------7-6-7---6---------7-----7-----7-----7-----7-----7-6-7------------------------------------
D-----------------------------------------------------------------------------------------------7----------------------------------
A----------------------------------------------------------------------------------------------------------------------------------
E----------------------------------------------------------------------------------------------------------------------------------
        
Comments

No comments yet