Gametabs
Home
Tabs
Random

Calling From Heaven

Average rating: 5.000

2 ratings

Composer:

Tabber:

Style:

Instrument:

Created: January 26, 2011 at 12:00 AM

            Calling From Heaven
Dracula Battle
(Castlevania Bloodlines - Stage 6)
Tabbed by DSheltonator
1/25/2011			

See zip file for .pdf and midi! 
Note that the audio link above is a backing track without the lead guitar.


Lead Guitar



      H.                H.                H.              Q    Q    E   E      
E||-----------------|-----------------|----------------|----------------------|
B||--12b------------|---L~------------|---L------------|----------------------|
G||-----------------|-----------------|----------------|---------------11pbr--|
D||-----------------|-----------------|----------------|----------------------|
A||-----------------|-----------------|----------------|----------------------|
E||-----------------|-----------------|----------------|----------------------|


  H.               Q     Q     E   E       E  E   Q.      S  S   
----------------|----------------------|------------------------|
----------------|----------------------|------------------------|
--9~------------|--L\------------------|------9~--L------11p-9h-|
----------------|-------------11p--9h--|--11--------------------|
----------------|----------------------|------------------------|
----------------|----------------------|------------------------|


  H.               H.              H.              H.            
----------------|---------------|---------------|---------------|
----------------|---------------|---------------|---------------|
--8~------------|--L------------|--L------------|--L------------|
----------------|---------------|---------------|---------------|
----------------|---------------|---------------|---------------|
----------------|---------------|---------------|---------------|


  H.               H.               H.               H.            
----------------|----------------|----------------|---------------|
----------------|----------------|----------------|---------------|
--L\------------|----------------|----------------|---------------|
----------------|--6h------------|--5~------------|--6------------|
----------------|----------------|----------------|---------------|
----------------|----------------|----------------|---------------|


  H.               H.                Q    Q    Q         Q    H           
----------------|---------------|-------------------|--------------------|
----------------|---------------|-------------------|--7g9----Lh~--------|
--8~------------|---------------|--7g8----5----6----|--------------------|
----------------|--6------------|-------------------|--------------------|
----------------|---------------|-------------------|--------------------|
----------------|---------------|-------------------|--------------------|


  Q    H              H        E   E       H          Q     
-----------------|---------------------|-------------------|
--7----L~--------|--5g7--------7h--9h--|--10~--------10----|
-----------------|---------------------|-------------------|
-----------------|---------------------|-------------------|
-----------------|---------------------|-------------------|
-----------------|---------------------|-------------------|


     H         E   E     Q.      E   Q         H.            
----------------------|-------------------|-----------------|
--9g10~--------9s--7--|--9~------L\-------|--6g8------------|
----------------------|-------------------|-----------------|
----------------------|-------------------|-----------------|
----------------------|-------------------|-----------------|
----------------------|-------------------|-----------------|


  Q     Q      Q           Q     H             H         Q      
--------------------|----------------------|-------------------|
--8h----9s----11----|--11g13-----L~--------|---L---------L\----|
--------------------|----------------------|-------------------|
--------------------|----------------------|-------------------|
--------------------|----------------------|-------------------|
--------------------|----------------------|-------------------|


    H        E   S  S     H.                 H        E   S  S  
-----------------------|----------------|----------------------|
-----------------------|----------------|----------------------|
-----------------------|----------------|----------------------|
--5g6--------Lh--7p-6s-|--5~------------|--5g6--------Lh--7p-6-|
-----------------------|----------------|----------------------|
-----------------------|----------------|----------------------|


  Q    Q     Q          H        Q       Q    Q    Q       H.              
-------------------|------------------|-----------------|-----------------|
-------------------|------------------|-----------------|--7br------------|
--8----L~----L\----|------------------|--8----5----6----|-----------------|
-------------------|--5g6--------6----|-----------------|-----------------|
-------------------|------------------|-----------------|-----------------|
-------------------|------------------|-----------------|-----------------|


  Q    Q     Q          H        E  E      Q.      E   Q        
-------------------|-------------------|-----------------------|
--7----L~----L\----|--5g7--------7--9--|--10~---------10pbr----|
-------------------|-------------------|-----------------------|
-------------------|-------------------|-----------------------|
-------------------|-------------------|-----------------------|
-------------------|-------------------|-----------------------|


   H        E   E     Q.      E   E  E     Q    Q.      E       Q    Q    Q     
-------------------|--------------------|-------------------|------------------|
--10--------9s--7--|--9~------L\--------|-------------------|--------7----8----|
-------------------|--------------6--8--|--9----L~------L\--|--/9--------------|
-------------------|--------------------|-------------------|------------------|
-------------------|--------------------|-------------------|------------------|
-------------------|--------------------|-------------------|------------------|


  H.                 H.               H.              H.            
----------------|--7g8b------------|--L------------|--L------------|
--9~------------|------------------|---------------|---------------|
----------------|------------------|---------------|---------------|
----------------|------------------|---------------|---------------|
----------------|------------------|---------------|---------------|
----------------|------------------|---------------|---------------|


  H.              H.               H.               H.                     
--L------------|--L~------------|--L~------------|--L~------------|-------|
---------------|----------------|----------------|----------------|-------|
---------------|----------------|----------------|----------------|-------|
---------------|----------------|----------------|----------------|-------|
---------------|----------------|----------------|----------------|-------|
---------------|----------------|----------------|----------------|-------|


-------|-------|-------|-------|-------|-------|-------|-------|
-------|-------|-------|-------|-------|-------|-------|-------|
-------|-------|-------|-------|-------|-------|-------|-------|
-------|-------|-------|-------|-------|-------|-------|-------|
-------|-------|-------|-------|-------|-------|-------|-------|
-------|-------|-------|-------|-------|-------|-------|-------|


  H        E  E     Q    H            Q    H             Q    H          
-----------------|-----------------|------------------|-----------------|
-----------------|-----------------|------------------|-----------------|
-----------------|-----------------|------------------|-----------------|
--------------6--|--6----L~--------|--L----6br--------|--L----L~--------|
-----------------|-----------------|------------------|-----------------|
-----------------|-----------------|------------------|-----------------|


  H.              H.               Q    Q       Q       E  E  H          
---------------|----------------|--------------------|------------------|
---------------|----------------|--------------------|------------------|
---------------|----------------|--------------------|------------------|
--L------------|--4b------------|--L----4pbr----2----|--4---------------|
---------------|----------------|--------------------|-----4--4~--------|
---------------|----------------|--------------------|------------------|


  Q     Q    E  E     Q    H            Q      Q    Q         Q    H          
-------------------|-----------------|-------------------|-------------------|
-------------------|-----------------|-------------------|-------------------|
-------------------|-----------------|-------------------|-------------------|
----------------1--|--2----L~--------|--L----2g4----2----|--4g6----L~--------|
--L\---------4-----|-----------------|-------------------|-------------------|
-------------------|-----------------|-------------------|-------------------|


  Q      Q    Q       Q    H            Q    Q     Q          Q     H          
-------------------|-----------------|------------------|---------------------|
-------------------|-----------------|------------------|---------------------|
-------------------|-----------------|------------------|---------------------|
--L----6g7----6----|--5----L~--------|--5----6s----8----|--8g10-----L~--------|
-------------------|-----------------|------------------|---------------------|
-------------------|-----------------|------------------|---------------------|


   Q      Q        Q        H.                H.            
------------------------|-----------------|----------------|
------------------------|-----------------|----------------|
------------------------|-----------------|----------------|
--10h----11----11g13----|--11~------------|---L------------|
------------------------|-----------------|----------------|
------------------------|-----------------|----------------|


   Q     Q     Q         H        Q         Q    H          
--------------------|------------------|-------------------|
--------------------|--4g5--------7----|--7g9----L~--------|
--------------------|------------------|-------------------|
---L-----L\---------|------------------|-------------------|
--------------------|------------------|-------------------|
--------------------|------------------|-------------------|


  Q    E  S  S  Q         Q    H            Q    Q    Q         H        Q     
---------------------|-------------------|-----------------|------------------|
--L----7--9p-7s-5----|--5g7----L~--------|--L----5----7----|--7g9--------9----|
---------------------|-------------------|-----------------|------------------|
---------------------|-------------------|-----------------|------------------|
---------------------|-------------------|-----------------|------------------|
---------------------|-------------------|-----------------|------------------|


    Q    Q        Q        H.                H           Q     
---------9----11g12----|-----------------|--------------------|
--7g9------------------|-----------------|--------------------|
-----------------------|--11b------------|--11pbr--------9----|
-----------------------|-----------------|--------------------|
-----------------------|-----------------|--------------------|
-----------------------|-----------------|--------------------|


    Q     Q     Q        H         E   E        Q     E  E   Q        
---------------12----|--11--------11s--9--|--9g11----12-----12pbr----|
---------14----------|--------------------|--------------------------|
--/14----------------|--------------------|--------------------------|
---------------------|--------------------|--------------------------|
---------------------|--------------------|--------------------------|
---------------------|--------------------|--------------------------|


   H          E    E      H         Q         H         Q     
--12~--------12p--11--|--12--------12----|--/17--------16----|
----------------------|------------------|-------------------|
----------------------|------------------|-------------------|
----------------------|------------------|-------------------|
----------------------|------------------|-------------------|
----------------------|------------------|-------------------|


   Q     H             Q     Q     Q        H          Q      
--14-----L~--------|--11----12----14----|--14b---------L~----|
-------------------|--------------------|--------------------|
-------------------|--------------------|--------------------|
-------------------|--------------------|--------------------|
-------------------|--------------------|--------------------|
-------------------|--------------------|--------------------|


   Q     Q        Q        E   E   Q     Q         Q     Q     Q     
---L----14pbr----12----|--14-------------------|--------------------|
-----------------------|------12--12-----L~----|---L\---------12----|
-----------------------|-----------------------|--------------------|
-----------------------|-----------------------|--------------------|
-----------------------|-----------------------|--------------------|
-----------------------|-----------------------|--------------------|


   H         Q        Q.     E   Q           Q     H          
------------11----|--12---------12pbr----|-------------------|
--14--------------|----------------------|--14-----L~--------|
------------------|----------------------|-------------------|
------------------|----------------------|-------------------|
------------------|----------------------|-------------------|
------------------|----------------------|-------------------|


   Q.      E   E   E      Q.       E   E   E      H.             
----------------------|--17b------17--16--14--|--16~------------|
---L\---------14--14--|-----------------------|-----------------|
----------------------|-----------------------|-----------------|
----------------------|-----------------------|-----------------|
----------------------|-----------------------|-----------------|
----------------------|-----------------------|-----------------|


   Q.       E   E   E       H          Q           H.             
--16b------16--14-------|----------------------|-----------------|
-------------------17b--|---L~---------Lpbr----|--14~------------|
------------------------|----------------------|-----------------|
------------------------|----------------------|-----------------|
------------------------|----------------------|-----------------|
------------------------|----------------------|-----------------|


   Q      Q     Q        H.                H         E   E      H.             
---------------------|--14~------------|---L--------12--14--|--14b------------|
--14h----16----17----|-----------------|--------------------|-----------------|
---------------------|-----------------|--------------------|-----------------|
---------------------|-----------------|--------------------|-----------------|
---------------------|-----------------|--------------------|-----------------|
---------------------|-----------------|--------------------|-----------------|


   H.               H.                   H.               H.             
---L------------|--14pbr~------------|---L------------|--14b------------|
----------------|--------------------|----------------|-----------------|
----------------|--------------------|----------------|-----------------|
----------------|--------------------|----------------|-----------------|
----------------|--------------------|----------------|-----------------|
----------------|--------------------|----------------|-----------------|


   Q     Q        Q        E   E   H             Q     Q     E   E   
---L----14pbr----12----|--14-----------------|------------------11--|
-----------------------|------14--14~--------|--14\---------14------|
-----------------------|---------------------|----------------------|
-----------------------|---------------------|----------------------|
-----------------------|---------------------|----------------------|
-----------------------|---------------------|----------------------|


   Q     H             Q     Q     Q           Q     H          
--12-----L~--------|---L----14----12----|--14g16-----L~--------|
-------------------|--------------------|----------------------|
-------------------|--------------------|----------------------|
-------------------|--------------------|----------------------|
-------------------|--------------------|----------------------|
-------------------|--------------------|----------------------|


   Q     Q     Q         H.               Q     Q     E    E   
---L----16----16h----|--15------------|--15----16----18s--20--|
---------------------|----------------|-----------------------|
---------------------|----------------|-----------------------|
---------------------|----------------|-----------------------|
---------------------|----------------|-----------------------|
---------------------|----------------|-----------------------|


   Q     H             Q     Q     Q         H        E   S  S   
--20-----L~--------|---L-----L\---------|-----------------------|
-------------------|--------------------|-----------------------|
-------------------|--------------------|-----------------------|
-------------------|--------------------|--5g6--------Lh--7p-6s-|
-------------------|--------------------|-----------------------|
-------------------|--------------------|-----------------------|


                                  |--3--|                                    
  H.                 H        E   S  S  S    Q    H            H.            
----------------|-------------------------|-----------------|---------------|
----------------|-------------------------|-----------------|---------------|
----------------|-------------------------|--8----L~--------|---------------|
--5~------------|--5g6--------Lh--6h-7p-6-|-----------------|--6------------|
----------------|-------------------------|-----------------|---------------|
----------------|-------------------------|-----------------|---------------|


    Q    Q    Q       H.                Q    Q     Q          H        E   E   
-------------------|-----------------|-------------------|--------------------|
-------------------|--7br------------|--7----L~----L\----|--5g7--------7s--9--|
--6g8----5----6----|-----------------|-------------------|--------------------|
-------------------|-----------------|-------------------|--------------------|
-------------------|-----------------|-------------------|--------------------|
-------------------|-----------------|-------------------|--------------------|


                                         |--3--|                      
   Q.      E   Q           H        E    S  S  S     H         E  E   
-----------------------|--------------------------|------------------|
--10~---------10pbr----|--10--------9h--10p-9p-7h-|--9~--------------|
-----------------------|--------------------------|------------6--8--|
-----------------------|--------------------------|------------------|
-----------------------|--------------------------|------------------|
-----------------------|--------------------------|------------------|


  Q    H            Q      Q      Q        H.                H.            
-----------------|---------------------|-----------------|----------------|
-----------------|---------------------|-----------------|--13------------|
--9----L~--------|--9S----11S----12----|--13~------------|----------------|
-----------------|---------------------|-----------------|----------------|
-----------------|---------------------|-----------------|----------------|
-----------------|---------------------|-----------------|----------------|


   Q     H             H.               H.               H         Q      
-------------------|----------------|----------------|-------------------|
--14-----L~--------|---L------------|---L------------|---L--------17b----|
-------------------|----------------|----------------|-------------------|
-------------------|----------------|----------------|-------------------|
-------------------|----------------|----------------|-------------------|
-------------------|----------------|----------------|-------------------|


   H.               H.                H.               H.            
----------------|-----------------|----------------|----------------|
--17------------|---L~------------|---L------------|---L------------|
----------------|-----------------|----------------|----------------|
----------------|-----------------|----------------|----------------|
----------------|-----------------|----------------|----------------|
----------------|-----------------|----------------|----------------|


  PM PM PM   PM      PM PM PM   PM      PM PM PM   PM      PM PM PM   PM    
  E  E  Q    Q       E  E  Q    Q       E  E  Q    Q       E  E  Q    Q     
------------------|------------------|------------------|------------------|
--------5---------|--------5---------|--------5---------|--------5---------|
-----6-------6----|-----6-------6----|-----6-------6----|-----6-------6----|
--6---------------|--6---------------|--6---------------|--6---------------|
------------------|------------------|------------------|------------------|
------------------|------------------|------------------|------------------|


  PM PM PM   PM      PM PM PM   PM      PM PM PM   PM      PM PM PM   PM    
  E  E  Q    Q       E  E  Q    Q       E  E  Q    Q       E  E  Q    Q     
------------------|------------------|------------------|------------------|
--------5---------|--------7---------|--------4---------|--------4---------|
-----6-------6----|-----7-------7----|-----6-------6----|-----5-------5----|
--7---------------|--7---------------|--6---------------|--6---------------|
------------------|------------------|------------------|------------------|
------------------|------------------|------------------|------------------|


  PM PM PM   PM      PM PM PM   PM      PM PM PM   PM      PM PM PM   PM    
  E  E  Q    Q       E  E  Q    Q       E  E  Q    Q       E  E  Q    Q     
------------------|------------------|------------------|------------------|
--------5---------|--------5---------|--------5---------|--------5---------|
-----6-------6----|-----6-------6----|-----6-------6----|-----6-------6----|
--6---------------|--6---------------|--6---------------|--6---------------|
------------------|------------------|------------------|------------------|
------------------|------------------|------------------|------------------|


  PM PM PM   PM      PM PM PM   PM      PM PM PM PM PM PM  
  E  E  Q    Q       E  E  Q    Q       E  E  E  E  E  E   
------------------|------------------|-----------------4--|
--------5---------|--------7---------|--------4-----4-----|
-----6-------6----|-----7-------7----|-----6-----6--------|
--7---------------|--7---------------|--6-----------------|
------------------|------------------|--------------------|
------------------|------------------|--------------------|


  PM PM PM PM            PM PM PM PM PM PM    PM PM PM PM PM PM  
  E  E  E  E  E    E     E  E  E  E  E  E     E  E  E  E  E  E   
--6-----8-----9S--11--|--------------------|--------------------|
----------------------|--------5--------5--|--------5--------5--|
-----5-----5----------|-----6--------6-----|-----6--------6-----|
----------------------|--6--------6--------|--6--------6--------|
----------------------|--------------------|--------------------|
----------------------|--------------------|--------------------|


  PM PM PM PM PM PM    PM PM PM PM PM PM    PM PM PM PM PM PM  
  E  E  E  E  E  E     E  E  E  E  E  E     E  E  E  E  E  E   
--------------------|--------------------|--------------------|
--------5--------5--|--------5--------5--|--------5--------5--|
-----6--------6-----|-----6--------6-----|-----6--------6-----|
--6--------6--------|--6--------6--------|--7--------7--------|
--------------------|--------------------|--------------------|
--------------------|--------------------|--------------------|


  PM PM PM PM PM PM    PM PM PM PM PM PM    PM PM PM PM          
  E  E  E  E  E  E     E  E  E  E  E  E     E  E  E  E  E    E   
--------------------|-----------------4--|--6-----8-----9s--11--|
--------7--------7--|--------4-----4-----|----------------------|
-----7--------7-----|-----6-----6--------|-----5-----5----------|
--7--------7--------|--6-----------------|----------------------|
--------------------|--------------------|----------------------|
--------------------|--------------------|----------------------|


  PM PM PM PM PM PM    PM PM PM PM PM PM    PM PM PM PM PM PM  
  E  E  E  E  E  E     E  E  E  E  E  E     E  E  E  E  E  E   
--------------------|--------------------|--------------------|
--------5--------5--|--------5--------5--|--------5--------5--|
-----6--------6-----|-----6--------6-----|-----6--------6-----|
--6--------6--------|--6--------6--------|--6--------6--------|
--------------------|--------------------|--------------------|
--------------------|--------------------|--------------------|


  PM PM PM PM PM PM    PM PM PM PM PM PM    PM PM PM PM PM PM  
  E  E  E  E  E  E     E  E  E  E  E  E     E  E  E  E  E  E   
--------------------|--------------------|--------------------|
--------5--------5--|--------5--------5--|--------7--------7--|
-----6--------6-----|-----6--------6-----|-----7--------7-----|
--6--------6--------|--7--------7--------|--7--------7--------|
--------------------|--------------------|--------------------|
--------------------|--------------------|--------------------|


  PM PM PM PM PM PM    PM PM PM PM            PM PM PM PM PM PM  
  E  E  E  E  E  E     E  E  E  E  E    E     E  E  E  E  E  E   
-----------------4--|--6-----8-----9s--11--|--------------------|
--------4-----4-----|----------------------|--------5--------5--|
-----6-----6--------|-----5-----5----------|-----6--------6-----|
--6-----------------|----------------------|--6--------6--------|
--------------------|----------------------|--------------------|
--------------------|----------------------|--------------------|


  PM PM PM PM PM PM    PM PM PM PM PM PM    PM PM PM PM PM PM  
  E  E  E  E  E  E     E  E  E  E  E  E     E  E  E  E  E  E   
--------------------|--------------------|--------------------|
--------5--------5--|--------5--------5--|--------5--------5--|
-----6--------6-----|-----6--------6-----|-----6--------6-----|
--6--------6--------|--6--------6--------|--6--------6--------|
--------------------|--------------------|--------------------|
--------------------|--------------------|--------------------|


  PM PM PM PM PM PM    PM PM PM PM PM PM    PM PM PM PM PM PM  
  E  E  E  E  E  E     E  E  E  E  E  E     E  E  E  E  E  E   
--------------------|--------------------|-----------------4--|
--------5--------5--|--------7--------7--|--------4-----4-----|
-----6--------6-----|-----7--------7-----|-----6-----6--------|
--7--------7--------|--7--------7--------|--6-----------------|
--------------------|--------------------|--------------------|
--------------------|--------------------|--------------------|


  PM PM PM PM            PM PM PM PM PM PM    PM PM PM PM PM PM  
  E  E  E  E  E    E     E  E  E  E  E  E     E  E  E  E  E  E   
--6-----8-----9s--11--|--------------------|--------------------|
----------------------|--------5--------5--|--------5--------5--|
-----5-----5----------|-----6--------6-----|-----6--------6-----|
----------------------|--6--------6--------|--6--------6--------|
----------------------|--------------------|--------------------|
----------------------|--------------------|--------------------|


  PM PM PM PM PM PM    PM PM PM PM PM PM    PM PM PM PM PM PM  
  E  E  E  E  E  E     E  E  E  E  E  E     E  E  E  E  E  E   
--------------------|--------------------|--------------------|
--------5--------5--|--------5--------5--|--------5--------5--|
-----6--------6-----|-----6--------6-----|-----6--------6-----|
--6--------6--------|--6--------6--------|--7--------7--------|
--------------------|--------------------|--------------------|
--------------------|--------------------|--------------------|


  PM PM PM PM PM PM    PM PM PM PM PM PM    PM PM PM PM          
  E  E  E  E  E  E     E  E  E  E  E  E     E  E  E  E  E    E   
--------------------|-----------------4--|--6-----8-----9s--11--|
--------7--------7--|--------4-----4-----|----------------------|
-----7--------7-----|-----6-----6--------|-----5-----5----------|
--7--------7--------|--6-----------------|----------------------|
--------------------|--------------------|----------------------|
--------------------|--------------------|----------------------|


  PM PM PM PM PM PM    PM PM PM PM PM PM    PM PM PM PM PM PM  
  E  E  E  E  E  E     E  E  E  E  E  E     E  E  E  E  E  E   
--------------------|--------------------|--------------------|
--------5--------5--|--------5--------5--|--------5--------5--|
-----6--------6-----|-----6--------6-----|-----6--------6-----|
--6--------6--------|--6--------6--------|--6--------6--------|
--------------------|--------------------|--------------------|
--------------------|--------------------|--------------------|


  PM PM PM PM PM PM    PM PM PM PM PM PM    PM PM PM PM PM PM  
  E  E  E  E  E  E     E  E  E  E  E  E     E  E  E  E  E  E   
--------------------|--------------------|--------------------|
--------5--------5--|--------5--------5--|--------7--------7--|
-----6--------6-----|-----6--------6-----|-----7--------7-----|
--6--------6--------|--7--------7--------|--7--------7--------|
--------------------|--------------------|--------------------|
--------------------|--------------------|--------------------|


  PM PM PM PM PM PM    PM PM PM PM            PM PM PM PM PM PM  
  E  E  E  E  E  E     E  E  E  E  E    E     E  E  E  E  E  E   
-----------------4--|--6-----8-----9s--11--|--------------------|
--------4-----4-----|----------------------|--------5--------5--|
-----6-----6--------|-----5-----5----------|-----6--------6-----|
--6-----------------|----------------------|--6--------6--------|
--------------------|----------------------|--------------------|
--------------------|----------------------|--------------------|


  PM PM PM PM PM PM    PM PM PM PM PM PM    PM PM PM PM PM PM  
  E  E  E  E  E  E     E  E  E  E  E  E     E  E  E  E  E  E   
--------------------|--------------------|--------------------|
--------5--------5--|--------5--------5--|--------5--------5--|
-----6--------6-----|-----6--------6-----|-----6--------6-----|
--6--------6--------|--6--------6--------|--6--------6--------|
--------------------|--------------------|--------------------|
--------------------|--------------------|--------------------|


  PM PM PM PM PM PM    PM PM PM PM PM PM    PM PM PM PM PM PM  
  E  E  E  E  E  E     E  E  E  E  E  E     E  E  E  E  E  E   
--------------------|--------------------|-----------------4--|
--------5--------5--|--------7--------7--|--------4-----4-----|
-----6--------6-----|-----7--------7-----|-----6-----6--------|
--7--------7--------|--7--------7--------|--6-----------------|
--------------------|--------------------|--------------------|
--------------------|--------------------|--------------------|


  PM PM PM PM            PM PM PM PM PM PM    PM PM PM PM PM PM  
  E  E  E  E  E    E     E  E  E  E  E  E     E  E  E  E  E  E   
--6-----8-----9s--11--|--------------------|--------------------|
----------------------|--------5--------5--|--------5--------5--|
-----5-----5----------|-----6--------6-----|-----6--------6-----|
----------------------|--6--------6--------|--6--------6--------|
----------------------|--------------------|--------------------|
----------------------|--------------------|--------------------|


  PM PM PM PM PM PM    PM PM PM PM PM PM    PM PM PM PM PM PM  
  E  E  E  E  E  E     E  E  E  E  E  E     E  E  E  E  E  E   
--------------------|--------------------|--------------------|
--------5--------5--|--------5--------5--|--------5--------5--|
-----6--------6-----|-----6--------6-----|-----6--------6-----|
--6--------6--------|--6--------6--------|--7--------7--------|
--------------------|--------------------|--------------------|
--------------------|--------------------|--------------------|


  PM PM PM PM PM PM    PM PM PM PM PM PM    PM PM PM PM          
  E  E  E  E  E  E     E  E  E  E  E  E     E  E  E  E  E    E   
--------------------|-----------------4--|--6-----8-----9s--11--|
--------7--------7--|--------4-----4-----|----------------------|
-----7--------7-----|-----6-----6--------|-----5-----5----------|
--7--------7--------|--6-----------------|----------------------|
--------------------|--------------------|----------------------|
--------------------|--------------------|----------------------|


  PM PM PM PM PM PM    PM PM PM PM PM PM    PM PM PM PM PM PM  
  E  E  E  E  E  E     E  E  E  E  E  E     E  E  E  E  E  E   
--------------------|--------------------|--------------------|
--------5--------5--|--------5--------5--|--------5--------5--|
-----6--------6-----|-----6--------6-----|-----6--------6-----|
--6--------6--------|--6--------6--------|--6--------6--------|
--------------------|--------------------|--------------------|
--------------------|--------------------|--------------------|


  PM PM PM PM PM PM    PM PM PM PM PM PM    PM PM PM PM PM PM  
  E  E  E  E  E  E     E  E  E  E  E  E     E  E  E  E  E  E   
--------------------|--------------------|--------------------|
--------5--------5--|--------5--------5--|--------7--------7--|
-----6--------6-----|-----6--------6-----|-----7--------7-----|
--6--------6--------|--7--------7--------|--7--------7--------|
--------------------|--------------------|--------------------|
--------------------|--------------------|--------------------|


  PM PM PM PM PM PM    PM PM PM PM            PM PM PM PM PM PM  
  E  E  E  E  E  E     E  E  E  E  E    E     E  E  E  E  E  E   
-----------------4--|--6-----8-----9s--11--|--------------------|
--------4-----4-----|----------------------|--------5--------5--|
-----6-----6--------|-----5-----5----------|-----6--------6-----|
--6-----------------|----------------------|--6--------6--------|
--------------------|----------------------|--------------------|
--------------------|----------------------|--------------------|


  PM PM PM PM PM PM    PM PM PM PM PM PM    PM PM PM PM PM PM  
  E  E  E  E  E  E     E  E  E  E  E  E     E  E  E  E  E  E   
--------------------|--------------------|--------------------|
--------5--------5--|--------5--------5--|--------5--------5--|
-----6--------6-----|-----6--------6-----|-----6--------6-----|
--6--------6--------|--6--------6--------|--6--------6--------|
--------------------|--------------------|--------------------|
--------------------|--------------------|--------------------|


  PM PM PM PM PM PM    PM PM PM PM PM PM    PM PM PM PM PM PM  
  E  E  E  E  E  E     E  E  E  E  E  E     E  E  E  E  E  E   
--------------------|--------------------|-----------------4--|
--------5--------5--|--------7--------7--|--------4-----4-----|
-----6--------6-----|-----7--------7-----|-----6-----6--------|
--7--------7--------|--7--------7--------|--6-----------------|
--------------------|--------------------|--------------------|
--------------------|--------------------|--------------------|


  PM PM PM PM            PM PM PM PM PM PM    PM PM PM PM PM PM  
  E  E  E  E  E    E     E  E  E  E  E  E     E  E  E  E  E  E   
--6-----8-----9s--11--|--------------------|--------------------|
----------------------|--------5--------5--|--------5--------5--|
-----5-----5----------|-----6--------6-----|-----6--------6-----|
----------------------|--6--------6--------|--6--------6--------|
----------------------|--------------------|--------------------|
----------------------|--------------------|--------------------|


  PM PM PM PM PM PM    PM PM PM PM PM PM    PM PM PM PM PM PM  
  E  E  E  E  E  E     E  E  E  E  E  E     E  E  E  E  E  E   
--------------------|--------------------|--------------------|
--------5--------5--|--------5--------5--|--------5--------5--|
-----6--------6-----|-----6--------6-----|-----6--------6-----|
--6--------6--------|--6--------6--------|--7--------7--------|
--------------------|--------------------|--------------------|
--------------------|--------------------|--------------------|


  PM PM PM PM PM PM    PM PM PM PM PM PM    PM PM PM PM           
  E  E  E  E  E  E     E  E  E  E  E  E     E  E  E  E  E    E    
--------------------|-----------------4--|--6-----8-----9s--11--||
--------7--------7--|--------4-----4-----|----------------------||
-----7--------7-----|-----6-----6--------|-----5-----5----------||
--7--------7--------|--6-----------------|----------------------||
--------------------|--------------------|----------------------||
--------------------|--------------------|----------------------||



			Calling From Heaven

			From "Dracula Battle" by Konami
Guitar 2



  H         Q        H.               Q     E    S   S  Q        H.            
E||-----------------|----------------|--------------------------|----------------|
B||--9--------10----|--12------------|---L----10h--12p-10p-9----|--12------------|
G||-----------------|----------------|--------------------------|----------------|
D||-----------------|----------------|--------------------------|----------------|
A||-----------------|----------------|--------------------------|----------------|
E||-----------------|----------------|--------------------------|----------------|


   Q     Q     Q        H         Q        Q     Q     Q        H.             
--------------------|------------------|--------------16----|-----------------|
---L----14----16----|--14--------14----|--14----17----------|--12b------------|
--------------------|------------------|--------------------|-----------------|
--------------------|------------------|--------------------|-----------------|
--------------------|------------------|--------------------|-----------------|
--------------------|------------------|--------------------|-----------------|


   H            Q        Q     Q     Q        H         E    E   
---------------------|--------12----16----|--14--------14s--12--|
--12pbr--------------|--14----------------|---------------------|
---------------13----|--------------------|---------------------|
---------------------|--------------------|---------------------|
---------------------|--------------------|---------------------|
---------------------|--------------------|---------------------|


   Q     Q     Q           H         E   E      H         Q     
--14----16----16pbr----|--16--------16--14--|--17--------17----|
-----------------------|--------------------|------------------|
-----------------------|--------------------|------------------|
-----------------------|--------------------|------------------|
-----------------------|--------------------|------------------|
-----------------------|--------------------|------------------|


   H         Q        H.               Q     Q     Q        H.             
--21--------19----|--19------------|--14----16----17----|--17b------------|
------------------|----------------|--------------------|-----------------|
------------------|----------------|--------------------|-----------------|
------------------|----------------|--------------------|-----------------|
------------------|----------------|--------------------|-----------------|
------------------|----------------|--------------------|-----------------|


   Q     Q        Q        E   E   H            Q     Q     Q     
---L----17pbr----16----|--17----------------|--------------------|
-----------------------|------16--16--------|---L\---------16----|
-----------------------|--------------------|--------------------|
-----------------------|--------------------|--------------------|
-----------------------|--------------------|--------------------|
-----------------------|--------------------|--------------------|


   H         Q        Q.     E   Q           H.            
------------14----|--16---------17pbr----|----------------|
--17--------------|----------------------|--17------------|
------------------|----------------------|----------------|
------------------|----------------------|----------------|
------------------|----------------------|----------------|
------------------|----------------------|----------------|


   Q.      E   E   E      Q.       E   E   E      H.            
----------------------|--21b------21--20--17--|--20------------|
---L\---------17--17--|-----------------------|----------------|
----------------------|-----------------------|----------------|
----------------------|-----------------------|----------------|
----------------------|-----------------------|----------------|
----------------------|-----------------------|----------------|


   Q.       E   E   E      H.               H.               Q     Q     Q     
--19b------19--17--16--|--19------------|--17------------|--17----19----------|
-----------------------|----------------|----------------|--------------14----|
-----------------------|----------------|----------------|--------------------|
-----------------------|----------------|----------------|--------------------|
-----------------------|----------------|----------------|--------------------|
-----------------------|----------------|----------------|--------------------|


   H.                H         Q           H.               H.            
-----------------|---------------------|----------------|----------------|
--14b------------|---L---------Lpbr----|--14------------|---L------------|
-----------------|---------------------|----------------|----------------|
-----------------|---------------------|----------------|----------------|
-----------------|---------------------|----------------|----------------|
-----------------|---------------------|----------------|----------------|


   H.              H.                                                    
----------------|---------------|-------|-------|-------|-------|-------|
---L------------|--L------------|-------|-------|-------|-------|-------|
----------------|---------------|-------|-------|-------|-------|-------|
----------------|---------------|-------|-------|-------|-------|-------|
----------------|---------------|-------|-------|-------|-------|-------|
----------------|---------------|-------|-------|-------|-------|-------|


-------|-------|-------|-------|-------|-------|-------|-------|-------|-------|
-------|-------|-------|-------|-------|-------|-------|-------|-------|-------|
-------|-------|-------|-------|-------|-------|-------|-------|-------|-------|
-------|-------|-------|-------|-------|-------|-------|-------|-------|-------|
-------|-------|-------|-------|-------|-------|-------|-------|-------|-------|
-------|-------|-------|-------|-------|-------|-------|-------|-------|-------|


-------|-------|-------|-------|-------|-------|-------|-------|-------|-------|
-------|-------|-------|-------|-------|-------|-------|-------|-------|-------|
-------|-------|-------|-------|-------|-------|-------|-------|-------|-------|
-------|-------|-------|-------|-------|-------|-------|-------|-------|-------|
-------|-------|-------|-------|-------|-------|-------|-------|-------|-------|
-------|-------|-------|-------|-------|-------|-------|-------|-------|-------|


-------|-------|-------|-------|-------|-------|-------|-------|-------|-------|
-------|-------|-------|-------|-------|-------|-------|-------|-------|-------|
-------|-------|-------|-------|-------|-------|-------|-------|-------|-------|
-------|-------|-------|-------|-------|-------|-------|-------|-------|-------|
-------|-------|-------|-------|-------|-------|-------|-------|-------|-------|
-------|-------|-------|-------|-------|-------|-------|-------|-------|-------|


-------|-------|-------|-------|-------|-------|-------|-------|-------|-------|
-------|-------|-------|-------|-------|-------|-------|-------|-------|-------|
-------|-------|-------|-------|-------|-------|-------|-------|-------|-------|
-------|-------|-------|-------|-------|-------|-------|-------|-------|-------|
-------|-------|-------|-------|-------|-------|-------|-------|-------|-------|
-------|-------|-------|-------|-------|-------|-------|-------|-------|-------|


                                                          PM PM PM PM PM PM  
                                                          E  E  E  E  E  E   
-------|-------|-------|-------|-------|-------|-------|--------4--------4--|
-------|-------|-------|-------|-------|-------|-------|-----5--------5-----|
-------|-------|-------|-------|-------|-------|-------|--6--------6--------|
-------|-------|-------|-------|-------|-------|-------|--------------------|
-------|-------|-------|-------|-------|-------|-------|--------------------|
-------|-------|-------|-------|-------|-------|-------|--------------------|


  PM PM PM PM PM PM    PM PM PM PM PM PM    PM PM PM PM PM PM  
  E  E  E  E  E  E     E  E  E  E  E  E     E  E  E  E  E  E   
--------4--------4--|--------4--------4--|--------4--------4--|
-----5--------5-----|-----5--------5-----|-----5--------5-----|
--6--------6--------|--6--------6--------|--6--------6--------|
--------------------|--------------------|--------------------|
--------------------|--------------------|--------------------|
--------------------|--------------------|--------------------|


  PM PM PM PM PM PM    PM PM PM PM PM PM    PM PM PM PM PM PM  
  E  E  E  E  E  E     E  E  E  E  E  E     E  E  E  E  E  E   
--------5--------5--|--------5--------5--|-----------------8--|
-----5--------5-----|-----7--------7-----|--------9-----9-----|
--6--------6--------|--7--------7--------|--6--8-----8--------|
--------------------|--------------------|--------------------|
--------------------|--------------------|--------------------|
--------------------|--------------------|--------------------|


  PM PM  PM PM             PM PM PM PM PM PM    PM PM PM PM PM PM  
  E  E   E  E   E    E     E  E  E  E  E  E     E  E  E  E  E  E   
--9-----11-----12s--14--|--------4--------4--|--------4--------4--|
------------------------|-----5--------5-----|-----5--------5-----|
-----8------8-----------|--6--------6--------|--6--------6--------|
------------------------|--------------------|--------------------|
------------------------|--------------------|--------------------|
------------------------|--------------------|--------------------|


  PM PM PM PM PM PM    PM PM PM PM PM PM    PM PM PM PM PM PM  
  E  E  E  E  E  E     E  E  E  E  E  E     E  E  E  E  E  E   
--------4--------4--|--------4--------4--|--------5--------5--|
-----5--------5-----|-----5--------5-----|-----5--------5-----|
--6--------6--------|--6--------6--------|--6--------6--------|
--------------------|--------------------|--------------------|
--------------------|--------------------|--------------------|
--------------------|--------------------|--------------------|


  PM PM PM PM PM PM    PM PM PM PM PM PM    PM PM  PM PM           
  E  E  E  E  E  E     E  E  E  E  E  E     E  E   E  E   E    E   
--------5--------5--|-----------------8--|--9-----11-----12s--14--|
-----7--------7-----|--------9-----9-----|------------------------|
--7--------7--------|--6--8-----8--------|-----8------8-----------|
--------------------|--------------------|------------------------|
--------------------|--------------------|------------------------|
--------------------|--------------------|------------------------|


  PM PM PM PM PM PM    PM PM PM PM PM PM    PM PM PM PM PM PM  
  E  E  E  E  E  E     E  E  E  E  E  E     E  E  E  E  E  E   
--------4--------4--|--------4--------4--|--------4--------4--|
-----5--------5-----|-----5--------5-----|-----5--------5-----|
--6--------6--------|--6--------6--------|--6--------6--------|
--------------------|--------------------|--------------------|
--------------------|--------------------|--------------------|
--------------------|--------------------|--------------------|


  PM PM PM PM PM PM    PM PM PM PM PM PM    PM PM PM PM PM PM  
  E  E  E  E  E  E     E  E  E  E  E  E     E  E  E  E  E  E   
--------4--------4--|--------5--------5--|--------5--------5--|
-----5--------5-----|-----5--------5-----|-----7--------7-----|
--6--------6--------|--6--------6--------|--7--------7--------|
--------------------|--------------------|--------------------|
--------------------|--------------------|--------------------|
--------------------|--------------------|--------------------|


  PM PM PM PM PM PM    PM PM  PM PM             PM PM PM PM PM PM  
  E  E  E  E  E  E     E  E   E  E   E    E     E  E  E  E  E  E   
-----------------8--|--9-----11-----12s--14--|--------4--------4--|
--------9-----9-----|------------------------|-----5--------5-----|
--6--8-----8--------|-----8------8-----------|--6--------6--------|
--------------------|------------------------|--------------------|
--------------------|------------------------|--------------------|
--------------------|------------------------|--------------------|


  PM PM PM PM PM PM    PM PM PM PM PM PM    PM PM PM PM PM PM  
  E  E  E  E  E  E     E  E  E  E  E  E     E  E  E  E  E  E   
--------4--------4--|--------4--------4--|--------4--------4--|
-----5--------5-----|-----5--------5-----|-----5--------5-----|
--6--------6--------|--6--------6--------|--6--------6--------|
--------------------|--------------------|--------------------|
--------------------|--------------------|--------------------|
--------------------|--------------------|--------------------|


  PM PM PM PM PM PM    PM PM PM PM PM PM    PM PM PM PM PM PM  
  E  E  E  E  E  E     E  E  E  E  E  E     E  E  E  E  E  E   
--------5--------5--|--------5--------5--|-----------------8--|
-----5--------5-----|-----7--------7-----|--------9-----9-----|
--6--------6--------|--7--------7--------|--6--8-----8--------|
--------------------|--------------------|--------------------|
--------------------|--------------------|--------------------|
--------------------|--------------------|--------------------|


  PM PM  PM PM             PM PM PM PM PM PM    PM PM PM PM PM PM  
  E  E   E  E   E    E     E  E  E  E  E  E     E  E  E  E  E  E   
--9-----11-----12s--14--|--------4--------4--|--------4--------4--|
------------------------|-----5--------5-----|-----5--------5-----|
-----8------8-----------|--6--------6--------|--6--------6--------|
------------------------|--------------------|--------------------|
------------------------|--------------------|--------------------|
------------------------|--------------------|--------------------|


  PM PM PM PM PM PM    PM PM PM PM PM PM    PM PM PM PM PM PM  
  E  E  E  E  E  E     E  E  E  E  E  E     E  E  E  E  E  E   
--------4--------4--|--------4--------4--|--------5--------5--|
-----5--------5-----|-----5--------5-----|-----5--------5-----|
--6--------6--------|--6--------6--------|--6--------6--------|
--------------------|--------------------|--------------------|
--------------------|--------------------|--------------------|
--------------------|--------------------|--------------------|


  PM PM PM PM PM PM    PM PM PM PM PM PM    PM PM  PM PM           
  E  E  E  E  E  E     E  E  E  E  E  E     E  E   E  E   E    E   
--------5--------5--|-----------------8--|--9-----11-----12s--14--|
-----7--------7-----|--------9-----9-----|------------------------|
--7--------7--------|--6--8-----8--------|-----8------8-----------|
--------------------|--------------------|------------------------|
--------------------|--------------------|------------------------|
--------------------|--------------------|------------------------|


  PM PM PM PM PM PM    PM PM PM PM PM PM    PM PM PM PM PM PM  
  E  E  E  E  E  E     E  E  E  E  E  E     E  E  E  E  E  E   
--------4--------4--|--------4--------4--|--------4--------4--|
-----5--------5-----|-----5--------5-----|-----5--------5-----|
--6--------6--------|--6--------6--------|--6--------6--------|
--------------------|--------------------|--------------------|
--------------------|--------------------|--------------------|
--------------------|--------------------|--------------------|


  PM PM PM PM PM PM    PM PM PM PM PM PM    PM PM PM PM PM PM  
  E  E  E  E  E  E     E  E  E  E  E  E     E  E  E  E  E  E   
--------4--------4--|--------5--------5--|--------5--------5--|
-----5--------5-----|-----5--------5-----|-----7--------7-----|
--6--------6--------|--6--------6--------|--7--------7--------|
--------------------|--------------------|--------------------|
--------------------|--------------------|--------------------|
--------------------|--------------------|--------------------|


  PM PM PM PM PM PM    PM PM  PM PM             PM PM PM PM PM PM  
  E  E  E  E  E  E     E  E   E  E   E    E     E  E  E  E  E  E   
-----------------8--|--9-----11-----12s--14--|--------4--------4--|
--------9-----9-----|------------------------|-----5--------5-----|
--6--8-----8--------|-----8------8-----------|--6--------6--------|
--------------------|------------------------|--------------------|
--------------------|------------------------|--------------------|
--------------------|------------------------|--------------------|


  PM PM PM PM PM PM    PM PM PM PM PM PM    PM PM PM PM PM PM  
  E  E  E  E  E  E     E  E  E  E  E  E     E  E  E  E  E  E   
--------4--------4--|--------4--------4--|--------4--------4--|
-----5--------5-----|-----5--------5-----|-----5--------5-----|
--6--------6--------|--6--------6--------