Gametabs
Home
Tabs
Random

Prayer

Average rating: 5.000

1 ratings

Composer:

Tabber:

Style:

Instrument:

Created: June 18, 2020 at 12:00 AM

            Title: Castlevania 3 - Prayer
Artist: Yoshinori Sasaki, Jun Funahashi, Yukie Morimoto
Album: Castlevania III
Author: 


Track 1: Jazz Guitar

E|--------------------------------------|----------------------0----|----0-----0-----0-----0-----0-----0-----0--------|
B|-5--4--5--5---------------0---1---3---|-1---1-------0---4---------|-------4-----2-----0-----------0-----2--------2--|
G|-0------------------------------------|---------------------------|-------------------------3-----------------3-----|
D|--------------------------------------|---------------------------|-------------------------------------------------|
A|--------------------------------------|-0-------------------------|-1-----------------2-----4-----2-----1-----------|
E|-0------------0---2---3-------0-------|-------------3---2----0----|-------------------------------------------2-----|


E|-0-----0------------------|-------------|
B|-0-----0----4--2--4--4----|-------------|
G|--------------------------|-------------|
D|--------------------------|-------------|
A|-2-----2------------------|-------------|
E|--------------------------|-------------|

        
Comments

No comments yet