Gametabs
Home
Tabs
Random

The Silence of Daylight

Average rating: No ratings

Composer:

Tabber:

Style:

Instrument:

Created: March 26, 2008 at 12:00 AM

            Title:     The Silence of Daylight
Game:      Castlevania 2 - Simon's Quest
Composer:  Kenichi Matsubara
Year:      1988
Tabber:    goldsac
Notes:

5 strings; Standard tuning (BEADG)

4/4 Time
    
_______________________________________________________________________________


Fast & Funky   bpm=110


Intro

     E  E  E  S S S E  S S S S S    E  E  E  S S S S S S S S S  S  
G||------------------------------|--------------------------------|
D||--------5---------------------|--------5----------8---8-7-8-10-|
A||--------------------------5-5-|--------------------------------|
E||--3--3-----3-3-3-6--5-6-7-----|--3--3-----3-3-6-6---6----------|
B||------------------------------|--------------------------------|


  E  E  E  S S S E  S S S S S    E  E  E  S S S S S S S S S  S  
------------------------------|--------------------------------||
--------5---------------------|--------5----------8---8-7-8-10-||
--------------------------5-5-|--------------------------------||
--3--3-----3-3-3-6--5-6-7-----|--3--3-----3-3-6-6---6----------||
------------------------------|--------------------------------||


Section A

    E  E  S S S S E  E  S S S S    E  E  E  E  S S E  S S S S  
|-------------------------------|--------7------------7-7---7-|
|*----------------------5-5-----|-----------------------------|
|-------------------------------|--5--5-----5--3-4-5------5---|
|*--3--3--6-5-3---3--3------6-3-|-----------------------------|
|---------------3---------------|-----------------------------|


  E  E  S S S S E  E  S S S S    E  E  E  E  S S E  S S S S  
------------------------------|--------7------------7-7---7-||
----------------------5-5-----|-----------------------------||
------------------------------|--5--5-----5--3-4-5------5---||
--3--3--6-5-3---3--3------6-3-|-----------------------------||
--------------3---------------|-----------------------------||


Section B

  S S S S E  S S S S S S E  S S    S S S S E  S S S S S S S S S S  
--------------------------------|---------------------------------|
------4--------------5---5------|------7---7----------8-----7-7-8-|
--------------------------------|-------------8-8-----------------|
--2-2---2-5----2-3-3---3----3-3-|--5-5---5--------6-6---6-6-------|
-------------3------------------|---------------------------------|


  S S S S E  S S S S  S S  E   S  S    S S  S S  S S  S  S  S  S  S  S  S  S  S  S  
------------------------------------|-------------------------------------------10-||
------9------9-------10---10--------|------11------9-11----12-12-10-11-12----------||
------------------------------10-10-|-----------12------12----------------10-11----||
--7-7---7-7----7-8-8----8-----------|--9-9----9------------------------------------||
------------------------------------|----------------------------------------------||


Section C

  E  S E  S Q    S S S S S S    S S S S S S Q    S S S E  S    E  S E  S Q    S S S E  S  
-----------------------------|------------------------------|----------------------------|
-----5----7------8-7-8-------|--------------5----5-5-5------|-----5----7----------8------|
-----------------------8-8---|--3-3-3-5-5-5-----------------|----------------------------|
--3----5----6--------------6-|-------------------------3--3-|--3----5----6----6-6---6--6-|
-----------------------------|------------------------------|----------------------------|


  S S S S S S Q    S S S S S S    
------5-----7-------------------||
--------------5------5---------*||
--3-3---5-5------------------5--||
-------------------3-----2-5---*||
-----------------------3--------||




Duration Legend
---------------
W - whole
H - half
Q - quarter
E - 8th
S - 16th
T - 32nd
X - 64th
. - note dotted
L - tied note

        
Comments

No comments yet