Gametabs
Home
Tabs
Random

Monster Dance

Average rating: No ratings

Composer:

Tabber:

Style:

Instrument:

Created: December 25, 2012 at 12:00 AM

            Monster Dance (Night Time Theme)
Castlevania 2: Simon's Quest
Composer: Club Kukeiha
Tabbed by: Bacardibreezer
12.24.2012

e|--12-------12---------|
B|-----14-15----13------|
G|-----------------15---|
D|----------------------|
A|----------------------|
E|----------------------| x2

e|------7---------------|--------------------------------------------------------------14-17-19---|
B|----8-----------------|--------------------------12------------12------------12---16------------|
G|--9------7----9--6----|--11-12-14-------11-12-14------11-12-14------11-12-14--------------------|
D|-------------------7--|-----------9-------------------------------------------------------------|
A|----------------------|-------------------------------------------------------------------------|
E|----------------------|-------------------------------------------------------------------------| x2

e|--------17-20--24--23------|--22--------19--20---|
B|-----17----------------24--|-------21------------|
G|--17-----------------------|---------------------|
D|---------------------------|---------------------|
A|---------------------------|---------------------|
E|---------------------------|---------------------| 

e|---------19------------15/17-15---------|
B|--18h20------20--18-------------18-17---|
G|----------------------------------------|
D|----------------------------------------|
A|----------------------------------------|
E|----------------------------------------| 

e|------------------------14-14-14---15-15-15---------------|----------------------------|
B|--16-16-16---17-17-17-------------------------17-17-16-16-|--16-16-16--17-17-17--------|
G|----------------------------------------------------------|----------------------16~---|
D|----------------------------------------------------------|----------------------------|
A|----------------------------------------------------------|----------------------------|
E|----------------------------------------------------------|----------------------------| 



        
Comments

No comments yet