Gametabs
Home
Tabs
Random

Simple Sight

Average rating: 5.000

1 ratings

Composer:

Tabber:

Style:

Instrument:

Created: May 15, 2017 at 12:00 AM

            Title: Simple Sight
Artist: Piercing Lazer


Track 1: Rhythm

E|--------|--------|--------|--------|--------|--------|--------|--------|---------------------------------|
B|--------|--------|--------|--------|--------|--------|--------|--------|---------------------------------|
G|--------|--------|--------|--------|--------|--------|--------|--------|---------------------------------|
D|--------|--------|--------|--------|--------|--------|--------|--------|---------------------------------|
A|--------|--------|--------|--------|--------|--------|--------|--------|---------------------------------|
E|--------|--------|--------|--------|--------|--------|--------|--------|-6---6---6---6---7---6---4---4---|


E|---------------------------------|---------------------------------|---------------------------------|
B|---------------------------------|---------------------------------|---------------------------------|
G|---------------------------------|---------------------------------|---------------------------------|
D|---------------------------------|---------------------------------|---------------------------------|
A|-7---7---7---7---7-------6-------|---------------------------------|-7---7---7---7---7-------6-------|
E|---------------------9-------9---|-6---6---6---6---7---6---4---4---|---------------------9-------9---|


E|---------------------------------|---------------------------------|---------------------------------|
B|---------------------------------|---------------------------------|---------------------------------|
G|---------------------------------|---------------------------------|---------------------------------|
D|---------------------------------|---------------------------------|---------------------------------|
A|---------------------------------|-7---7---7---7---7-------6-------|---------------------------------|
E|-6---6---6---6---7---6---4---4---|---------------------9-------9---|-6---6---6---6---7---6---4---4---|


E|---------------------------------|---------------------------------|-------------------------------------|
B|---------------------------------|---------------------------------|-------------------------------------|
G|---------------------------------|---------------------------------|-------------------------------------|
D|---------------------------------|-8---8-------7---7-------4---4---|-----6---6-------2---2-----2---2-----|
A|-7---7---7---7---7-------6-------|-8---8-------7---7-------4---4---|-----6---6-------2---2-----2---2-----|
E|---------------------9-------9---|-6---6-------5---5-------2---2---|-----4---4-------0---0-----0---0-----|


E|---------------------------------|-------------------------------------|---------------------------------|
B|---------------------------------|-------------------------------------|---------------------------------|
G|---------------------------------|-------------------------------------|---------------------------------|
D|-8---8-------7---7-------4---4---|-----6---6-------2---2-----2---2-----|-8---8-------7---7-------4---4---|
A|-8---8-------7---7-------4---4---|-----6---6-------2---2-----2---2-----|-8---8-------7---7-------4---4---|
E|-6---6-------5---5-------2---2---|-----4---4-------0---0-----0---0-----|-6---6-------5---5-------2---2---|


E|-------------------------------------|---------------------------------|-------------------------------------|
B|-------------------------------------|---------------------------------|-------------------------------------|
G|-------------------------------------|---------------------------------|-------------------------------------|
D|-----6---6-------2---2-----2---2-----|-8---8-------7---7-------4---4---|-----6---6-------2---2-----2---2-----|
A|-----6---6-------2---2-----2---2-----|-8---8-------7---7-------4---4---|-----6---6-------2---2-----2---2-----|
E|-----4---4-------0---0-----0---0-----|-6---6-------5---5-------2---2---|-----4---4-------0---0-----0---0-----|


E|---------------------------------|-------------------------------------|---------------------------------|
B|---------------------------------|-------------------------------------|---------------------------------|
G|---------------------------------|-------------------------------------|---------------------------------|
D|-8---8-------7---7-------4---4---|-----6---6-------2---2-----2---2-----|-8---8-------7---7-------4---4---|
A|-8---8-------7---7-------4---4---|-----6---6-------2---2-----2---2-----|-8---8-------7---7-------4---4---|
E|-6---6-------5---5-------2---2---|-----4---4-------0---0-----0---0-----|-6---6-------5---5-------2---2---|


E|-------------------------------------|---------------------------------|-------------------------------------|
B|-------------------------------------|---------------------------------|-------------------------------------|
G|-------------------------------------|---------------------------------|-------------------------------------|
D|-----6---6-------2---2-----2---2-----|-8---8-------7---7-------4---4---|-----6---6-------2---2-----2---2-----|
A|-----6---6-------2---2-----2---2-----|-8---8-------7---7-------4---4---|-----6---6-------2---2-----2---2-----|
E|-----4---4-------0---0-----0---0-----|-6---6-------5---5-------2---2---|-----4---4-------0---0-----0---0-----|


E|---------------------------------|-------------------------------------|---------------------------------|
B|---------------------------------|-------------------------------------|---------------------------------|
G|---------------------------------|-------------------------------------|-6---6---6---6---6---6---6---6---|
D|-8---8-------7---7-------4---4---|-----6---6-------2---2-----2---2-----|-6---6---6---6---6---6---6---6---|
A|-8---8-------7---7-------4---4---|-----6---6-------2---2-----2---2-----|-4---4---4---4---4---4---4---4---|
E|-6---6-------5---5-------2---2---|-----4---4-------0---0-----0---0-----|---------------------------------|


E|---------------------------------|---------------------------------|---------------------------------|
B|---------------------------------|---------------------------------|---------------------------------|
G|-9---9---9---9---14--14--14--14--|-9---9---9---9---9---9---9---9---|-11--11--11--11--5---5---5---5---|
D|-9---9---9---9---14--14--14--14--|-9---9---9---9---9---9---9---9---|-11--11--11--11--5---5---5---5---|
A|-7---7---7---7---12--12--12--12--|-7---7---7---7---7---7---7---7---|-9---9---9---9---3---3---3---3---|
E|---------------------------------|---------------------------------|---------------------------------|


E|---------------------------------|---------------------------------|---------------------------------|
B|---------------------------------|---------------------------------|---------------------------------|
G|-6---6---6---6---6---6---6---6---|-9---9---9---9---14--14--14--14--|-9---9---9---9---9---9---9---9---|
D|-6---6---6---6---6---6---6---6---|-9---9---9---9---14--14--14--14--|-9---9---9---9---9---9---9---9---|
A|-4---4---4---4---4---4---4---4---|-7---7---7---7---12--12--12--12--|-7---7---7---7---7---7---7---7---|
E|---------------------------------|---------------------------------|---------------------------------|


E|---------------------------------|---------------------------------|---------------------------------|
B|---------------------------------|---------------------------------|---------------------------------|
G|-11--11--11--11--5---5---5---5---|-6---6---6---6---6---6---6---6---|-9---9---9---9---14--14--14--14--|
D|-11--11--11--11--5---5---5---5---|-6---6---6---6---6---6---6---6---|-9---9---9---9---14--14--14--14--|
A|-9---9---9---9---3---3---3---3---|-4---4---4---4---4---4---4---4---|-7---7---7---7---12--12--12--12--|
E|---------------------------------|---------------------------------|---------------------------------|


E|---------------------------------|---------------------------------|---------------------------------|
B|---------------------------------|---------------------------------|---------------------------------|
G|-9---9---9---9---9---9---9---9---|-11--11--11--11--5---5---5---5---|-6---6---6---6---6---6---6---6---|
D|-9---9---9---9---9---9---9---9---|-11--11--11--11--5---5---5---5---|-6---6---6---6---6---6---6---6---|
A|-7---7---7---7---7---7---7---7---|-9---9---9---9---3---3---3---3---|-4---4---4---4---4---4---4---4---|
E|---------------------------------|---------------------------------|---------------------------------|


E|---------------------------------|---------------------------------|---------------------------------|
B|---------------------------------|---------------------------------|---------------------------------|
G|-9---9---9---9---14--14--14--14--|-9---9---9---9---9---9---9---9---|-11--11--11--11--5---5---5---5---|
D|-9---9---9---9---14--14--14--14--|-9---9---9---9---9---9---9---9---|-11--11--11--11--5---5---5---5---|
A|-7---7---7---7---12--12--12--12--|-7---7---7---7---7---7---7---7---|-9---9---9---9---3---3---3---3---|
E|---------------------------------|---------------------------------|---------------------------------|


E|---------------------------------|---------------------------------|---------------------------------|
B|---------------------------------|---------------------------------|---------------------------------|
G|---------------------------------|---------------------------------|---------------------------------|
D|---------------------------------|---------------------------------|---------------------------------|
A|---------------------------------|-7---7---7---7---7-------6-------|---------------------------------|
E|-6---6---6---6---7---6---4---4---|---------------------9-------9---|-6---6---6---6---7---6---4---4---|


E|---------------------------------|---------------------------------|---------------------------------|
B|---------------------------------|---------------------------------|---------------------------------|
G|---------------------------------|---------------------------------|---------------------------------|
D|---------------------------------|---------------------------------|---------------------------------|
A|-7---7---7---7---7-------6-------|---------------------------------|-7---7---7---7---7-------6-------|
E|---------------------9-------9---|-6---6---6---6---7---6---4---4---|---------------------9-------9---|


E|---------------------------------|---------------------------------|---------------------------------|
B|---------------------------------|---------------------------------|---------------------------------|
G|---------------------------------|---------------------------------|---------------------------------|
D|---------------------------------|---------------------------------|-8---8-------7---7-------4---4---|
A|---------------------------------|-7---7---7---7---7-------6-------|-8---8-------7---7-------4---4---|
E|-6---6---6---6---7---6---4---4---|---------------------9-------9---|-6---6-------5---5-------2---2---|


E|-------------------------------------|---------------------------------|-------------------------------------|
B|-------------------------------------|---------------------------------|-------------------------------------|
G|-------------------------------------|---------------------------------|-------------------------------------|
D|-----6---6-------2---2-----2---2-----|-8---8-------7---7-------4---4---|-----6---6-------2---2-----2---2-----|
A|-----6---6-------2---2-----2---2-----|-8---8-------7---7-------4---4---|-----6---6-------2---2-----2---2-----|
E|-----4---4-------0---0-----0---0-----|-6---6-------5---5-------2---2---|-----4---4-------0---0-----0---0-----|


E|---------------------------------|-------------------------------------|---------------------------------|
B|---------------------------------|-------------------------------------|---------------------------------|
G|---------------------------------|-------------------------------------|---------------------------------|
D|-8---8-------7---7-------4---4---|-----6---6-------2---2-----2---2-----|-8---8-------7---7-------4---4---|
A|-8---8-------7---7-------4---4---|-----6---6-------2---2-----2---2-----|-8---8-------7---7-------4---4---|
E|-6---6-------5---5-------2---2---|-----4---4-------0---0-----0---0-----|-6---6-------5---5-------2---2---|


E|-------------------------------------|---------------------------------|-------------------------------------|
B|-------------------------------------|---------------------------------|-------------------------------------|
G|-------------------------------------|---------------------------------|-------------------------------------|
D|-----6---6-------2---2-----2---2-----|-8---8-------7---7-------4---4---|-----6---6-------2---2-----2---2-----|
A|-----6---6-------2---2-----2---2-----|-8---8-------7---7-------4---4---|-----6---6-------2---2-----2---2-----|
E|-----4---4-------0---0-----0---0-----|-6---6-------5---5-------2---2---|-----4---4-------0---0-----0---0-----|


E|---------------------------------|-------------------------------------|---------------------------------|
B|---------------------------------|-------------------------------------|---------------------------------|
G|---------------------------------|-------------------------------------|---------------------------------|
D|-8---8-------7---7-------4---4---|-----6---6-------2---2-----2---2-----|-8---8-------7---7-------4---4---|
A|-8---8-------7---7-------4---4---|-----6---6-------2---2-----2---2-----|-8---8-------7---7-------4---4---|
E|-6---6-------5---5-------2---2---|-----4---4-------0---0-----0---0-----|-6---6-------5---5-------2---2---|


E|-------------------------------------|---------------------------------|-------------------------------------|
B|-------------------------------------|---------------------------------|-------------------------------------|
G|-------------------------------------|---------------------------------|-------------------------------------|
D|-----6---6-------2---2-----2---2-----|-8---8-------7---7-------4---4---|-----6---6-------2---2-----2---2-----|
A|-----6---6-------2---2-----2---2-----|-8---8-------7---7-------4---4---|-----6---6-------2---2-----2---2-----|
E|-----4---4-------0---0-----0---0-----|-6---6-------5---5-------2---2---|-----4---4-------0---0-----0---0-----|


E|---------------------------------|---------------------------------|---------------------------------|
B|---------------------------------|---------------------------------|---------------------------------|
G|-6---6---6---6---6---6---6---6---|-9---9---9---9---14--14--14--14--|-9---9---9---9---9---9---9---9---|
D|-6---6---6---6---6---6---6---6---|-9---9---9---9---14--14--14--14--|-9---9---9---9---9---9---9---9---|
A|-4---4---4---4---4---4---4---4---|-7---7---7---7---12--12--12--12--|-7---7---7---7---7---7---7---7---|
E|---------------------------------|---------------------------------|---------------------------------|


E|---------------------------------|---------------------------------|---------------------------------|
B|---------------------------------|---------------------------------|---------------------------------|
G|-11--11--11--11--5---5---5---5---|-6---6---6---6---6---6---6---6---|-9---9---9---9---14--14--14--14--|
D|-11--11--11--11--5---5---5---5---|-6---6---6---6---6---6---6---6---|-9---9---9---9---14--14--14--14--|
A|-9---9---9---9---3---3---3---3---|-4---4---4---4---4---4---4---4---|-7---7---7---7---12--12--12--12--|
E|---------------------------------|---------------------------------|---------------------------------|


E|---------------------------------|---------------------------------|---------------------------------|
B|---------------------------------|---------------------------------|---------------------------------|
G|-9---9---9---9---9---9---9---9---|-11--11--11--11--5---5---5---5---|-6---6---6---6---6---6---6---6---|
D|-9---9---9---9---9---9---9---9---|-11--11--11--11--5---5---5---5---|-6---6---6---6---6---6---6---6---|
A|-7---7---7---7---7---7---7---7---|-9---9---9---9---3---3---3---3---|-4---4---4---4---4---4---4---4---|
E|---------------------------------|---------------------------------|---------------------------------|


E|---------------------------------|---------------------------------|---------------------------------|
B|---------------------------------|---------------------------------|---------------------------------|
G|-9---9---9---9---14--14--14--14--|-9---9---9---9---9---9---9---9---|-11--11--11--11--5---5---5---5---|
D|-9---9---9---9---14--14--14--14--|-9---9---9---9---9---9---9---9---|-11--11--11--11--5---5---5---5---|
A|-7---7---7---7---12--12--12--12--|-7---7---7---7---7---7---7---7---|-9---9---9---9---3---3---3---3---|
E|---------------------------------|---------------------------------|---------------------------------|


E|---------------------------------|---------------------------------|---------------------------------|
B|---------------------------------|---------------------------------|---------------------------------|
G|-6---6---6---6---6---6---6---6---|-9---9---9---9---14--14--14--14--|-9---9---9---9---9---9---9---9---|
D|-6---6---6---6---6---6---6---6---|-9---9---9---9---14--14--14--14--|-9---9---9---9---9---9---9---9---|
A|-4---4---4---4---4---4---4---4---|-7---7---7---7---12--12--12--12--|-7---7---7---7---7---7---7---7---|
E|---------------------------------|---------------------------------|---------------------------------|


E|---------------------------------|---------------------------------|-------------------------------------|
B|---------------------------------|---------------------------------|-------------------------------------|
G|-11--11--11--11--5---5---5---5---|---------------------------------|-------------------------------------|
D|-11--11--11--11--5---5---5---5---|-8---8-------7---7-------4---4---|-----6---6-------2---2-----2---2-----|
A|-9---9---9---9---3---3---3---3---|-8---8-------7---7-------4---4---|-----6---6-------2---2-----2---2-----|
E|---------------------------------|-6---6-------5---5-------2---2---|-----4---4-------0---0-----0---0-----|


E|---------------------------------|-------------------------------------|---------------------------------|
B|---------------------------------|-------------------------------------|---------------------------------|
G|---------------------------------|-------------------------------------|---------------------------------|
D|-8---8-------7---7-------4---4---|-----6---6-------2---2-----2---2-----|-8---8-------7---7-------4---4---|
A|-8---8-------7---7-------4---4---|-----6---6-------2---2-----2---2-----|-8---8-------7---7-------4---4---|
E|-6---6-------5---5-------2---2---|-----4---4-------0---0-----0---0-----|-6---6-------5---5-------2---2---|


E|-------------------------------------|---------------------------------|-------------------------------------|
B|-------------------------------------|---------------------------------|-------------------------------------|
G|-------------------------------------|---------------------------------|-------------------------------------|
D|-----6---6-------2---2-----2---2-----|-8---8-------7---7-------4---4---|-----6---6-------2---2-----2---2-----|
A|-----6---6-------2---2-----2---2-----|-8---8-------7---7-------4---4---|-----6---6-------2---2-----2---2-----|
E|-----4---4-------0---0-----0---0-----|-6---6-------5---5-------2---2---|-----4---4-------0---0-----0---0-----|


E|---------------------------------|---------------------------------|---------------------------------|
B|---------------------------------|---------------------------------|---------------------------------|
G|-6---6---6---6---6---6---6---6---|-9---9---9---9---14--14--14--14--|-9---9---9---9---9---9---9---9---|
D|-6---6---6---6---6---6---6---6---|-9---9---9---9---14--14--14--14--|-9---9---9---9---9---9---9---9---|
A|-4---4---4---4---4---4---4---4---|-7---7---7---7---12--12--12--12--|-7---7---7---7---7---7---7---7---|
E|---------------------------------|---------------------------------|---------------------------------|


E|---------------------------------|---------------------------------|---------------------------------|
B|---------------------------------|---------------------------------|---------------------------------|
G|-11--11--11--11--5---5---5---5---|-6---6---6---6---6---6---6---6---|-9---9---9---9---14--14--14--14--|
D|-11--11--11--11--5---5---5---5---|-6---6---6---6---6---6---6---6---|-9---9---9---9---14--14--14--14--|
A|-9---9---9---9---3---3---3---3---|-4---4---4---4---4---4---4---4---|-7---7---7---7---12--12--12--12--|
E|---------------------------------|---------------------------------|---------------------------------|


E|---------------------------------|---------------------------------|---------------------------------|
B|---------------------------------|---------------------------------|---------------------------------|
G|-9---9---9---9---9---9---9---9---|-11--11--11--11--5---5---5---5---|-6---6---6---6---6---6---6---6---|
D|-9---9---9---9---9---9---9---9---|-11--11--11--11--5---5---5---5---|-6---6---6---6---6---6---6---6---|
A|-7---7---7---7---7---7---7---7---|-9---9---9---9---3---3---3---3---|-4---4---4---4---4---4---4---4---|
E|---------------------------------|---------------------------------|---------------------------------|


E|---------------------------------|---------------------------------|---------------------------------|
B|---------------------------------|---------------------------------|---------------------------------|
G|-9---9---9---9---14--14--14--14--|-9---9---9---9---9---9---9---9---|-11--11--11--11--5---5---5---5---|
D|-9---9---9---9---14--14--14--14--|-9---9---9---9---9---9---9---9---|-11--11--11--11--5---5---5---5---|
A|-7---7---7---7---12--12--12--12--|-7---7---7---7---7---7---7---7---|-9---9---9---9---3---3---3---3---|
E|---------------------------------|---------------------------------|---------------------------------|


E|---------------------------------|---------------------------------|---------------------------------|
B|---------------------------------|---------------------------------|---------------------------------|
G|-6---6---6---6---6---6---6---6---|-9---9---9---9---14--14--14--14--|-9---9---9---9---9---9---9---9---|
D|-6---6---6---6---6---6---6---6---|-9---9---9---9---14--14--14--14--|-9---9---9---9---9---9---9---9---|
A|-4---4---4---4---4---4---4---4---|-7---7---7---7---12--12--12--12--|-7---7---7---7---7---7---7---7---|
E|---------------------------------|---------------------------------|---------------------------------|


E|---------------------------------|---------------------------------|-------------------------------------|
B|---------------------------------|---------------------------------|-------------------------------------|
G|-11--11--11--11--5---5---5---5---|---------------------------------|-------------------------------------|
D|-11--11--11--11--5---5---5---5---|-8---8-------7---7-------4---4---|-----6---6-------2---2-----2---2-----|
A|-9---9---9---9---3---3---3---3---|-8---8-------7---7-------4---4---|-----6---6-------2---2-----2---2-----|
E|---------------------------------|-6---6-------5---5-------2---2---|-----4---4-------0---0-----0---0-----|


E|---------------------------------|-------------------------------------|---------------------------------|
B|---------------------------------|-------------------------------------|---------------------------------|
G|---------------------------------|-------------------------------------|---------------------------------|
D|-8---8-------7---7-------4---4---|-----6---6-------2---2-----2---2-----|-8---8-------7---7-------4---4---|
A|-8---8-------7---7-------4---4---|-----6---6-------2---2-----2---2-----|-8---8-------7---7-------4---4---|
E|-6---6-------5---5-------2---2---|-----4---4-------0---0-----0---0-----|-6---6-------5---5-------2---2---|


E|-------------------------------------|---------------------------------|-------------------------------------|
B|-------------------------------------|---------------------------------|-------------------------------------|
G|-------------------------------------|---------------------------------|-------------------------------------|
D|-----6---6-------2---2-----2---2-----|-8---8-------7---7-------4---4---|-----6---6-------2---2-----2---2-----|
A|-----6---6-------2---2-----2---2-----|-8---8-------7---7-------4---4---|-----6---6-------2---2-----2---2-----|
E|-----4---4-------0---0-----0---0-----|-6---6-------5---5-------2---2---|-----4---4-------0---0-----0---0-----|


E|---------------------------------|-------------------------------------|---------------------------------|
B|---------------------------------|-------------------------------------|---------------------------------|
G|---------------------------------|-------------------------------------|---------------------------------|
D|-8---8-------7---7-------4---4---|-----6---6-------2---2-----2---2-----|-8---8-------7---7-------4---4---|
A|-8---8-------7---7-------4---4---|-----6---6-------2---2-----2---2-----|-8---8-------7---7-------4---4---|
E|-6---6-------5---5-------2---2---|-----4---4-------0---0-----0---0-----|-6---6-------5---5-------2---2---|


E|-------------------------------------|---------------------------------|-------------------------------------|
B|-------------------------------------|---------------------------------|-------------------------------------|
G|-------------------------------------|---------------------------------|-------------------------------------|
D|-----6---6-------2---2-----2---2-----|-8---8-------7---7-------4---4---|-----6---6-------2---2-----2---2-----|
A|-----6---6-------2---2-----2---2-----|-8---8-------7---7-------4---4---|-----6---6-------2---2-----2---2-----|
E|-----4---4-------0---0-----0---0-----|-6---6-------5---5-------2---2---|-----4---4-------0---0-----0---0-----|


E|---------------------------------|-------------------------------------|---------------------------------|
B|---------------------------------|-------------------------------------|---------------------------------|
G|---------------------------------|-------------------------------------|-6---6---6---6---6---6---6---6---|
D|-8---8-------7---7-------4---4---|-----6---6-------2---2-----2---2-----|-6---6---6---6---6---6---6---6---|
A|-8---8-------7---7-------4---4---|-----6---6-------2---2-----2---2-----|-4---4---4---4---4---4---4---4---|
E|-6---6-------5---5-------2---2---|-----4---4-------0---0-----0---0-----|---------------------------------|


E|---------------------------------|---------------------------------|---------------------------------|
B|---------------------------------|---------------------------------|---------------------------------|
G|-9---9---9---9---14--14--14--14--|-9---9---9---9---9---9---9---9---|-11--11--11--11--5---5---5---5---|
D|-9---9---9---9---14--14--14--14--|-9---9---9---9---9---9---9---9---|-11--11--11--11--5---5---5---5---|
A|-7---7---7---7---12--12--12--12--|-7---7---7---7---7---7---7---7---|-9---9---9---9---3---3---3---3---|
E|---------------------------------|---------------------------------|---------------------------------|


E|---------------------------------|---------------------------------|---------------------------------|
B|---------------------------------|---------------------------------|---------------------------------|
G|-6---6---6---6---6---6---6---6---|-9---9---9---9---14--14--14--14--|-9---9---9---9---9---9---9---9---|
D|-6---6---6---6---6---6---6---6---|-9---9---9---9---14--14--14--14--|-9---9---9---9---9---9---9---9---|
A|-4---4---4---4---4---4---4---4---|-7---7---7---7---12--12--12--12--|-7---7---7---7---7---7---7---7---|
E|---------------------------------|---------------------------------|---------------------------------|


E|---------------------------------|---------------------------------|---------------------------------|
B|---------------------------------|---------------------------------|---------------------------------|
G|-11--11--11--11--5---5---5---5---|-6---6---6---6---6---6---6---6---|-9---9---9---9---14--14--14--14--|
D|-11--11--11--11--5---5---5---5---|-6---6---6---6---6---6---6---6---|-9---9---9---9---14--14--14--14--|
A|-9---9---9---9---3---3---3---3---|-4---4---4---4---4---4---4---4---|-7---7---7---7---12--12--12--12--|
E|---------------------------------|---------------------------------|---------------------------------|


E|---------------------------------|---------------------------------|---------------------------------|
B|---------------------------------|---------------------------------|---------------------------------|
G|-9---9---9---9---9---9---9---9---|-11--11--11--11--5---5---5---5---|-6---6---6---6---6---6---6---6---|
D|-9---9---9---9---9---9---9---9---|-11--11--11--11--5---5---5---5---|-6---6---6---6---6---6---6---6---|
A|-7---7---7---7---7---7---7---7---|-9---9---9---9---3---3---3---3---|-4---4---4---4---4---4---4---4---|
E|---------------------------------|---------------------------------|---------------------------------|


E|---------------------------------|---------------------------------|---------------------------------|
B|---------------------------------|---------------------------------|---------------------------------|
G|-9---9---9---9---14--14--14--14--|-9---9---9---9---9---9---9---9---|-11--11--11--11--5---5---5---5---|
D|-9---9---9---9---14--14--14--14--|-9---9---9---9---9---9---9---9---|-11--11--11--11--5---5---5---5---|
A|-7---7---7---7---12--12--12--12--|-7---7---7---7---7---7---7---7---|-9---9---9---9---3---3---3---3---|
E|---------------------------------|---------------------------------|---------------------------------|


E|---------------------------------|-------------------------------------|---------------------------------|
B|---------------------------------|-------------------------------------|---------------------------------|
G|---------------------------------|-------------------------------------|---------------------------------|
D|-8---8-------7---7-------4---4---|-----6---6-------2---2-----2---2-----|-8---8-------7---7-------4---4---|
A|-8---8-------7---7-------4---4---|-----6---6-------2---2-----2---2-----|-8---8-------7---7-------4---4---|
E|-6---6-------5---5-------2---2---|-----4---4-------0---0-----0---0-----|-6---6-------5---5-------2---2---|


E|-------------------------------------|---------------------------------|-------------------------------------|
B|-------------------------------------|---------------------------------|-------------------------------------|
G|-------------------------------------|---------------------------------|-------------------------------------|
D|-----6---6-------2---2-----2---2-----|-8---8-------7---7-------4---4---|-----6---6-------2---2-----2---2-----|
A|-----6---6-------2---2-----2---2-----|-8---8-------7---7-------4---4---|-----6---6-------2---2-----2---2-----|
E|-----4---4-------0---0-----0---0-----|-6---6-------5---5-------2---2---|-----4---4-------0---0-----0---0-----|


E|---------------------------------|-------------------------------------|
B|---------------------------------|-------------------------------------|
G|---------------------------------|-------------------------------------|
D|-8---8-------7---7-------4---4---|-----6---6-------2---2-----2---2-----|
A|-8---8-------7---7-------4---4---|-----6---6-------2---2-----2---2-----|
E|-6---6-------5---5-------2---2---|-----4---4-------0---0-----0---0-----|





Track 3: Lead

E|--------|--------|--------|--------|--------|--------|--------|--------|--------|
B|--------|--------|--------|--------|--------|--------|--------|--------|--------|
G|--------|--------|--------|--------|--------|--------|--------|--------|--------|
D|--------|--------|--------|--------|--------|--------|--------|--------|--------|
A|--------|--------|--------|--------|--------|--------|--------|--------|--------|
E|--------|--------|--------|--------|--------|--------|--------|--------|--------|


E|--------|--------|--------|--------|--------|--------|--------|--------|--------|
B|--------|--------|--------|--------|--------|--------|--------|--------|--------|
G|--------|--------|--------|--------|--------|--------|--------|--------|--------|
D|--------|--------|--------|--------|--------|--------|--------|--------|--------|
A|--------|--------|--------|--------|--------|--------|--------|--------|--------|
E|--------|--------|--------|--------|--------|--------|--------|--------|--------|


E|--------|--------|--------|--------|--------|--------|--------|--------|--------|
B|--------|--------|--------|--------|--------|--------|--------|--------|--------|
G|--------|--------|--------|--------|--------|--------|--------|--------|--------|
D|--------|--------|--------|--------|--------|--------|--------|--------|--------|
A|--------|--------|--------|--------|--------|--------|--------|--------|--------|
E|--------|--------|--------|--------|--------|--------|--------|--------|--------|


E|--------|--------|--------|--------|--------|---------------------------------|---------------------------------|
B|--------|--------|--------|--------|--------|-----------------9---------------|-10------10------9-------7-------|
G|--------|--------|--------|--------|--------|-6---9---8---6-------9---8---6---|-----6-------6-------6-------6---|
D|--------|--------|--------|--------|--------|---------------------------------|---------------------------------|
A|--------|--------|--------|--------|--------|---------------------------------|---------------------------------|
E|--------|--------|--------|--------|--------|---------------------------------|---------------------------------|


E|---------------------------------|---------------------------------|---------------------------------|
B|---------------------------------|-7-------7-----------------------|-----------------9---------------|
G|-9---8---6-------9---8---6-------|-----6-------6---8---9---8---6---|-6---9---8---6-------9---8---6---|
D|-------------6---------------6---|---------------------------------|---------------------------------|
A|---------------------------------|---------------------------------|---------------------------------|
E|---------------------------------|---------------------------------|---------------------------------|


E|---------------------------------|---------------------------------|---------------------------------|
B|-10------10------9-------7-------|---------------------------------|-7-------7-----------------------|
G|-----6-------6-------6-------6---|-9---8---6-------9---8---6-------|-----6-------6---8---9---8---6---|
D|---------------------------------|-------------6---------------6---|---------------------------------|
A|---------------------------------|---------------------------------|---------------------------------|
E|---------------------------------|---------------------------------|---------------------------------|


E|---------------------------------|---------------------------------|---------------------------------|
B|-----------------9---------------|-10------10------9-------7-------|---------------------------------|
G|-6---9---8---6-------9---8---6---|-----6-------6-------6-------6---|-9---8---6-------9---8---6-------|
D|---------------------------------|---------------------------------|-------------6---------------6---|
A|---------------------------------|---------------------------------|---------------------------------|
E|---------------------------------|---------------------------------|---------------------------------|


E|---------------------------------|---------------------------------|---------------------------------|
B|-7-------7-----------------------|-----------------9---------------|-10------10------9-------7-------|
G|-----6-------6---8---9---8---6---|-6---9---8---6-------9---8---6---|-----6-------6-------6-------6---|
D|---------------------------------|---------------------------------|---------------------------------|
A|---------------------------------|---------------------------------|---------------------------------|
E|---------------------------------|---------------------------------|---------------------------------|


E|---------------------------------|---------------------------------|--------|--------|
B|---------------------------------|-7-------7-----------------------|--------|--------|
G|-9---8---6-------9---8---6-------|-----6-------6---8---9---8---6---|--------|--------|
D|-------------6---------------6---|---------------------------------|--------|--------|
A|---------------------------------|---------------------------------|--------|--------|
E|---------------------------------|---------------------------------|--------|--------|


E|--------|--------|--------|--------|--------|--------|--------|--------|--------|
B|--------|--------|--------|--------|--------|--------|--------|--------|--------|
G|--------|--------|--------|--------|--------|--------|--------|--------|--------|
D|--------|--------|--------|--------|--------|--------|--------|--------|--------|
A|--------|--------|--------|--------|--------|--------|--------|--------|--------|
E|--------|--------|--------|--------|--------|--------|--------|--------|--------|


E|--------|--------|--------|--------|--------|--------|--------|--------|--------|
B|--------|--------|--------|--------|--------|--------|--------|--------|--------|
G|--------|--------|--------|--------|--------|--------|--------|--------|--------|
D|--------|--------|--------|--------|--------|--------|--------|--------|--------|
A|--------|--------|--------|--------|--------|--------|--------|--------|--------|
E|--------|--------|--------|--------|--------|--------|--------|--------|--------|


E|--------|--------|--------|--------|---------------------------------|---------------------------------|
B|--------|--------|--------|--------|-----------------9---------------|-10------10------9-------7-------|
G|--------|--------|--------|--------|-6---9---8---6-------9---8---6---|-----6-------6-------6-------6---|
D|--------|--------|--------|--------|---------------------------------|---------------------------------|
A|--------|--------|--------|--------|---------------------------------|---------------------------------|
E|--------|--------|--------|--------|---------------------------------|---------------------------------|


E|---------------------------------|---------------------------------|---------------------------------|
B|---------------------------------|-7-------7-----------------------|-----------------9---------------|
G|-9---8---6-------9---8---6-------|-----6-------6---8---9---8---6---|-6---9---8---6-------9---8---6---|
D|-------------6---------------6---|---------------------------------|---------------------------------|
A|---------------------------------|---------------------------------|---------------------------------|
E|---------------------------------|---------------------------------|---------------------------------|


E|---------------------------------|---------------------------------|---------------------------------|
B|-10------10------9-------7-------|---------------------------------|-7-------7-----------------------|
G|-----6-------6-------6-------6---|-9---8---6-------9---8---6-------|-----6-------6---8---9---8---6---|
D|---------------------------------|-------------6---------------6---|---------------------------------|
A|---------------------------------|---------------------------------|---------------------------------|
E|---------------------------------|---------------------------------|---------------------------------|


E|---------------------------------|---------------------------------|---------------------------------|
B|-----------------9---------------|-10------10------9-------7-------|---------------------------------|
G|-6---9---8---6-------9---8---6---|-----6-------6-------6-------6---|-9---8---6-------9---8---6-------|
D|---------------------------------|---------------------------------|-------------6---------------6---|
A|---------------------------------|---------------------------------|---------------------------------|
E|---------------------------------|---------------------------------|---------------------------------|


E|---------------------------------|---------------------------------|---------------------------------|
B|-7-------7-----------------------|-----------------9---------------|-10------10------9-------7-------|
G|-----6-------6---8---9---8---6---|-6---9---8---6-------9---8---6---|-----6-------6-------6-------6---|
D|---------------------------------|---------------------------------|---------------------------------|
A|---------------------------------|---------------------------------|---------------------------------|
E|---------------------------------|---------------------------------|---------------------------------|


E|---------------------------------|---------------------------------|--------|--------|
B|---------------------------------|-7-------7-----------------------|--------|--------|
G|-9---8---6-------9---8---6-------|-----6-------6---8---9---8---6---|--------|--------|
D|-------------6---------------6---|---------------------------------|--------|--------|
A|---------------------------------|---------------------------------|--------|--------|
E|---------------------------------|---------------------------------|--------|--------|


E|--------|--------|--------|--------|--------|--------|---------------------------------|
B|--------|--------|--------|--------|--------|--------|-----------------9---------------|
G|--------|--------|--------|--------|--------|--------|-6---9---8---6-------9---8---6---|
D|--------|--------|--------|--------|--------|--------|---------------------------------|
A|--------|--------|--------|--------|--------|--------|---------------------------------|
E|--------|--------|--------|--------|--------|--------|---------------------------------|


E|---------------------------------|---------------------------------|---------------------------------|
B|-10------10------9-------7-------|---------------------------------|-7-------7-----------------------|
G|-----6-------6-------6-------6---|-9---8---6-------9---8---6-------|-----6-------6---8---9---8---6---|
D|---------------------------------|-------------6---------------6---|---------------------------------|
A|---------------------------------|---------------------------------|---------------------------------|
E|---------------------------------|---------------------------------|---------------------------------|


E|---------------------------------|---------------------------------|---------------------------------|
B|-----------------9---------------|-10------10------9-------7-------|---------------------------------|
G|-6---9---8---6-------9---8---6---|-----6-------6-------6-------6---|-9---8---6-------9---8---6-------|
D|---------------------------------|---------------------------------|-------------6---------------6---|
A|---------------------------------|---------------------------------|---------------------------------|
E|---------------------------------|---------------------------------|---------------------------------|


E|---------------------------------|---------------------------------|---------------------------------|
B|-7-------7-----------------------|-----------------9---------------|-10------10------9-------7-------|
G|-----6-------6---8---9---8---6---|-6---9---8---6-------9---8---6---|-----6-------6-------6-------6---|
D|---------------------------------|---------------------------------|---------------------------------|
A|---------------------------------|---------------------------------|---------------------------------|
E|---------------------------------|---------------------------------|---------------------------------|


E|---------------------------------|---------------------------------|---------------------------------|
B|---------------------------------|-7-------7-----------------------|-----------------9---------------|
G|-9---8---6-------9---8---6-------|-----6-------6---8---9---8---6---|-6---9---8---6-------9---8---6---|
D|-------------6---------------6---|---------------------------------|---------------------------------|
A|---------------------------------|---------------------------------|---------------------------------|
E|---------------------------------|---------------------------------|---------------------------------|


E|---------------------------------|---------------------------------|---------------------------------|
B|-10------10------9-------7-------|---------------------------------|-7-------7-----------------------|
G|-----6-------6-------6-------6---|-9---8---6-------9---8---6-------|-----6-------6---8---9---8---6---|
D|---------------------------------|-------------6---------------6---|---------------------------------|
A|---------------------------------|---------------------------------|---------------------------------|
E|---------------------------------|---------------------------------|---------------------------------|


E|--------|--------|--------|--------|--------|--------|--------|--------|--------|
B|--------|--------|--------|--------|--------|--------|--------|--------|--------|
G|--------|--------|--------|--------|--------|--------|--------|--------|--------|
D|--------|--------|--------|--------|--------|--------|--------|--------|--------|
A|--------|--------|--------|--------|--------|--------|--------|--------|--------|
E|--------|--------|--------|--------|--------|--------|--------|--------|--------|


E|--------|--------|--------|--------|--------|--------|--------|--------|--------|
B|--------|--------|--------|--------|--------|--------|--------|--------|--------|
G|--------|--------|--------|--------|--------|--------|--------|--------|--------|
D|--------|--------|--------|--------|--------|--------|--------|--------|--------|
A|--------|--------|--------|--------|--------|--------|--------|--------|--------|
E|--------|--------|--------|--------|--------|--------|--------|--------|--------|


E|--------|--------|---------------------------------|---------------------------------|
B|--------|--------|-----------------9---------------|-10------10------9-------7-------|
G|--------|--------|-6---9---8---6-------9---8---6---|-----6-------6-------6-------6---|
D|--------|--------|---------------------------------|---------------------------------|
A|--------|--------|---------------------------------|---------------------------------|
E|--------|--------|---------------------------------|---------------------------------|


E|---------------------------------|---------------------------------|---------------------------------|
B|---------------------------------|-7-------7-----------------------|-----------------9---------------|
G|-9---8---6-------9---8---6-------|-----6-------6---8---9---8---6---|-6---9---8---6-------9---8---6---|
D|-------------6---------------6---|---------------------------------|---------------------------------|
A|---------------------------------|---------------------------------|---------------------------------|
E|---------------------------------|---------------------------------|---------------------------------|


E|---------------------------------|---------------------------------|---------------------------------|
B|-10------10------9-------7-------|---------------------------------|-7-------7-----------------------|
G|-----6-------6-------6-------6---|-9---8---6-------9---8---6-------|-----6-------6---8---9---8---6---|
D|---------------------------------|-------------6---------------6---|---------------------------------|
A|---------------------------------|---------------------------------|---------------------------------|
E|---------------------------------|---------------------------------|---------------------------------|


E|---------------------------------|---------------------------------|---------------------------------|
B|-----------------9---------------|-10------10------9-------7-------|---------------------------------|
G|-6---9---8---6-------9---8---6---|-----6-------6-------6-------6---|-9---8---6-------9---8---6-------|
D|---------------------------------|---------------------------------|-------------6---------------6---|
A|---------------------------------|---------------------------------|---------------------------------|
E|---------------------------------|---------------------------------|---------------------------------|


E|---------------------------------|--------|--------|--------|--------|--------|--------|
B|-7-------7-----------------------|--------|--------|--------|--------|--------|--------|
G|-----6-------6---8---9---8---6---|--------|--------|--------|--------|--------|--------|
D|---------------------------------|--------|--------|--------|--------|--------|--------|
A|---------------------------------|--------|--------|--------|--------|--------|--------|
E|---------------------------------|--------|--------|--------|--------|--------|--------|


E|--------|--------|
B|--------|--------|
G|--------|--------|
D|--------|--------|
A|--------|--------|
E|--------|--------|





Track 4: Bass

E|--------|--------|--------|--------|--------|--------|--------|--------|---------------------------------|
B|--------|--------|--------|--------|--------|--------|--------|--------|---------------------------------|
G|--------|--------|--------|--------|--------|--------|--------|--------|---------------------------------|
D|--------|--------|--------|--------|--------|--------|--------|--------|---------------------------------|
A|--------|--------|--------|--------|--------|--------|--------|--------|---------------------------------|
E|--------|--------|--------|--------|--------|--------|--------|--------|-6---6---6---6---7---6---4---4---|


E|---------------------------------|---------------------------------|---------------------------------|
B|---------------------------------|---------------------------------|---------------------------------|
G|---------------------------------|---------------------------------|---------------------------------|
D|---------------------------------|---------------------------------|---------------------------------|
A|-7---7---7---7---7-------6-------|---------------------------------|-7---7---7---7---7-------6-------|
E|---------------------9-------9---|-6---6---6---6---7---6---4---4---|---------------------9-------9---|


E|---------------------------------|---------------------------------|---------------------------------|
B|---------------------------------|---------------------------------|---------------------------------|
G|---------------------------------|---------------------------------|---------------------------------|
D|---------------------------------|---------------------------------|---------------------------------|
A|---------------------------------|-7---7---7---7---7-------6-------|---------------------------------|
E|-6---6---6---6---7---6---4---4---|---------------------9-------9---|-6---6---6---6---7---6---4---4---|


E|---------------------------------|---------------------------------|-----------------------------------------|
B|---------------------------------|---------------------------------|-----------------------------------------|
G|---------------------------------|---------------------------------|-----------------------------------------|
D|---------------------------------|---------------------------------|-----------------------------------------|
A|-7---7---7---7---7-------6-------|---------------------------------|-----------------------------------------|
E|---------------------9-------9---|-6---6-------5---5-------2---2---|-----4---4-------0-----------0-----------|


E|---------------------------------|-----------------------------------------|---------------------------------|
B|---------------------------------|-----------------------------------------|---------------------------------|
G|---------------------------------|-----------------------------------------|---------------------------------|
D|---------------------------------|-----------------------------------------|---------------------------------|
A|---------------------------------|-----------------------------------------|---------------------------------|
E|-6---6-------5---5-------2---2---|-----4---4-------0-----------0-----------|-6---6-------5---5-------2---2---|


E|-----------------------------------------|---------------------------------|-----------------------------------------|
B|-----------------------------------------|---------------------------------|-----------------------------------------|
G|-----------------------------------------|---------------------------------|-----------------------------------------|
D|-----------------------------------------|---------------------------------|-----------------------------------------|
A|-----------------------------------------|---------------------------------|-----------------------------------------|
E|-----4---4-------0-----------0-----------|-6---6-------5---5-------2---2---|-----4---4-------0-----------0-----------|


E|---------------------------------|-----------------------------------------|---------------------------------|
B|---------------------------------|-----------------------------------------|---------------------------------|
G|---------------------------------|-----------------------------------------|---------------------------------|
D|---------------------------------|-----------------------------------------|---------------------------------|
A|---------------------------------|-----------------------------------------|---------------------------------|
E|-6---6-------5---5-------2---2---|-----4---4-------0-----------0-----------|-6---6-------5---5-------2---2---|


E|-----------------------------------------|---------------------------------|-------------------------------------|
B|-----------------------------------------|---------------------------------|-------------------------------------|