Gametabs
Home
Tabs
Random

Moete Hero

Average rating: 4.000

2 ratings

Composer:

Tabber:

Style:

Instrument:

Created: May 25, 2012 at 12:00 AM

            Song : Moete Hero
Anime: Captain Tsubasa
Cover: Daniel Guerra Caballero
Video: http://youtu.be/f6JCbcMiKlA
Date : May, 2012
Mail : [email protected]
web : http://danielguerracaballero.blogspot.com

Intro
1-------------------------------------------------
2-/13-12-10--15-13-12-10--/13-12-10--/15-13-15-17-
3-------------------------------------------------
4-------------------------------------------------
5-------------------------------------------------
6-------------------------------------------------

1-------------------------------|-----------------|------------------
2-------------------------------|-----------------|------------------
3------------5----/7-7-5-4------|--/7-7-5-7-7-9-7-|-/7-7-7-7-5-4-----
4-/7-7-5-7-7---7-----------5-7--|-----------------|--------------5/7-
5-------------------------------|-----------------|------------------
6-------------------------------|-----------------|------------------

1----------------------|----------------------------|-------------------------------
2----------------------|----------------------------|-------------------------------
3-9-9-7-9-9-(9-9-7-9-9)|-/7-7-7-5-7-7-(/7-7-7-5-7-7)|-5-5-5-5-4-4-4-4-2-2-2-2---4-2-
4----------------------|----------------------------|-------------------------5-----
5----------------------|----------------------------|-------------------------------
6----------------------|----------------------------|-------------------------------

1--------------------|--------------|---------------|-----------------|--------------
2--------------------|--------------|---------------|-----------------|--------------
3-------5-5-4-4------|-/15-13-12-10-|-5-7-7-7-7-5-7-|-5-5-5-5-4-------|--------------
4-7(x8)--------5-5/7-|--------------|---------------|-----------5-5/7-|-/7-5-7-5-7---
5--------------------|--------------|---------------|-----------------|------------7-
6--------------------|--------------|---------------|-----------------|--------------

1--------------|-------------------------------|----------------|------------------
2--------------|-------------------------------|----------------|------------------
3-/4-2-4-5-7-4-|-9-9-9-7-7-7-7-5-5-5-5-4-2-2/9-|-9-9-9-10-10-10-|-9-9--9-7-(5-4-2)-
4--------------|-------------------------------|----------------|----------10-9-8--
5--------------|-------------------------------|----------------|------------------
6--------------|-------------------------------|----------------|------------------

1---------------|--------------|-----------------|---------------|-------------
2---------------|--------------|-----------------|---------------|-15-13-12-10-
3---------------|-/4-2-4-5-7-4-|-9/10-9-7--9-7-5-|-9-7-5-4---2---|-------------
4-/7-5-7-9-10-7-|--------------|-----------------|---------5-----|-------------
5---------------|--------------|-----------------|---------------|-------------
6---------------|--------------|-----------------|---------------|-------------
        
Comments

No comments yet