Gametabs
Home
Tabs
Random

The Feeling That Doesn't Reach

Average rating: 4.500

4 ratings

Composer:

Tabber:

Style:

Instrument:

Created: January 08, 2013 at 12:00 AM

                                    Feeling That Doesn't Reach / Todoke Kanai Kimochi
                                
5 Centimeters Per Second
Tenmon / “V–å
Arranged for guitar by Basisti94 (Miro Laaksonen)
6.1.2013

     ^                ^                ^        ^                       
     Q    H           Q    H           H        Q       E  E  H         
E||-------4--------|-------4--------|----------------|-----------------|
B||--6-------------|--6-------------|--4-------------|-----------------|
G||--6-------------|--6-------------|-----------5----|--6--5--3--------|
D||--6-------------|--6-------------|--6--------6----|--3--------------|
A||----------------|----------------|-----------6----|-----------------|
E||----------------|----------------|----------------|-----------------|


  ^                ^                ^                                  
  H        Q       Q    H           Q    Q    E  E     H        E  E   
----------------|----------------|------------------|-----------------|
----------------|-------2--------|--4---------4-----|--6--------------|
--1--------1----|--3-------------|--5----6----------|-----------------|
--3-------------|--4-------------|--6------------6--|--------------6--|
--3-------------|--4-------------|------------------|-----------------|
----------------|----------------|------------------|-----------------|


  ^                  ^                                                      
  E  E  Q.     E     E  E  Q.     E     H        Q         E  E  Q.     E   
--------4---------|--------4---------|----------------|--------------------|
--6---------------|--6---------------|--4-------------|--------------------|
--6---------------|--6---------------|-----------5----|--5g6--5--3------3--|
--6--6---------6--|--6--6---------6--|----------------|--------------------|
------------------|------------------|----------------|--------------------|
------------------|------------------|----------------|--------------------|


                     ^                ^    ^             ^                  
    Q    H           Q    H           Q    Q    Q        E  E  E  E   Q     
------------------|----------------|-----------------|---9--8--9-----------|
------------------|-------2--------|--4---------4----|--11--------9--------|
------------------|--3-------------|--5----6---------|--10-----------10----|
--3g6-------------|--4----4--------|--6----6---------|---------------------|
---------3--------|--4-------------|-----------------|---------------------|
------------------|----------------|-----------------|---------------------|


   ^                       ^                      ^                   
   E  E  E  E   E   E      E  E  E   E   Q        E  E  E   E   Q     
---9--8--9-------------|---9--8--9------------|---9--8--9------------|
--11--------9------11--|--11--------11--------|--11--------11--------|
--10-----------10------|--11------------11----|--11------------11----|
-----------------------|----------------------|----------------------|
-----------------------|----------------------|----------------------|
-----------------------|----------------------|----------------------|


  ^                   ^                    ^                   ^                
  E  E  E  E  Q       E  E  E  E  E  E     E  E  E  E  Q       Q.     E  E  E   
-------------------|--------------------|-------------------|------------------|
--2--1--2----------|--2--1--2-----------|--2--1--2----------|--1---------4-----|
--3--------3-------|--3--------3-----3--|--3--------3-------|--1------1-----1--|
--3-----------3----|--3-----------3-----|--4-----------4----|--1---------------|
-------------------|--------------------|-------------------|------------------|
-------------------|--------------------|-------------------|------------------|


  ^                 ^                 ^                ^               
  E  E  H           E  E  H           H        Q       E  E  H         
--------6--------|--------6--------|----------------|-----------------|
--8--------------|--8--------------|--6-------------|--4--3-----------|
-----------------|--8--------------|--7--------7----|--3-----5--------|
--8--8-----------|--8--8-----------|--8-------------|--5--------------|
-----------------|-----------------|----------------|-----------------|
-----------------|-----------------|----------------|-----------------|


  ^                                                                     
  Q.     E  Q         Q    Q.     E     Q    Q    Q       H.            
-----------------|-------------------|--1---------1----|---------------|
-----------------|---------4---------|-------4---------|--4------------|
--3---------3----|--3g5-----------3--|--3--------------|--3------------|
--3--------------|-------------------|-----------------|---------------|
--5------5-------|----0--------------|-----------------|---------------|
-----------------|-------------------|-----------------|---------------|


                     ^    ^            ^                 ^             
  Q.     E  E  E     Q    Q.     E     Q    Q    Q       H.            
------------------|--------------3--|--1--------------|---------------|
------------------|--1----4---------|--3----4----6----|--4------------|
------------3-----|--1----5---------|--3----3----3----|--0------------|
--3------3--------|--1----6---------|-----------------|--1------------|
---------------5--|-----------------|-----------------|---------------|
------------------|-----------------|-----------------|---------------|


                                                     ^                      
  E  E  E  E  E  E     E  E  E  E  Q       Q    Q    Q       H.             
--------------1-----|--------1--3--6----|------------6----|--L------------||
--------4--------4--|--------4-----6----|-------6----6----|--L------------||
-----3-----3--------|-----3-----3-------|--7---------7----|--L------------||
--1-----------------|--1----------------|-----------------|---------------||
--------------------|-------------------|-----------------|---------------||
--------------------|-------------------|-----------------|---------------||

I probably do at least few more 5 Centimeters Per Second arrangements.



Duration Legend
---------------
W - whole
H - half
Q - quarter
E - 8th
S - 16th
T - 32nd
X - 64th
. - note dotted
|-n-|  - n-tuplets


Tablature Legend
----------------
L - tied note
x - dead note
g - grace note
h - hammer on
p - pull off
b - bend
^ - brush up
v - brush down

        
Comments

@worldeditor11 (January 12, 2013 at 12:38 AM)

Me want more.