Gametabs
Home
Tabs
Random

Poem of Sky and Sea

Average rating: 5.000

3 ratings

Composer:

Tabber:

Style:

Instrument:

Created: January 18, 2013 at 12:00 AM

                                    Sora To Umi No Shi
                                
5 Centimeters Per Second
Tenmon 
Arranged for guitar by Basisti94 (Miro Laaksonen)
12.1.2013



Tempo ~ 130

     E  E  E  E  E  E  E  E     E  E  E  E  E  E  E  E   
E||--0-----------------3-----|--0-----------------3-----|
B||--------1-----3-----------|--------1-----3-----------|
G||-----0-----0-----0-----0--|-----0-----0-----0-----0--|
D||--------------------------|-----------------------L--|
A||--3--------------------L--|--0--------------------L--|
E||--------------------------|--------------------------|


  E  E  E  E  E  E  E  E     E  E  E  E  E  E  E  E   
--0-----------------3-----|--0-----------------3-----|
--------1-----3-----------|--------1-----3-----------|
-----0-----0-----0-----0--|-----0-----0-----0-----0--|
--------------------------|--------------------------|
--------------------------|--------------------------|
--1--------------------L--|--3--------------------L--|


  E  E  E  E  E  E  E  E     E  E  E  E  E  E  E  E   
--0-----------------3-----|--0-----------------3-----|
--------1-----3-----------|--------1-----3-----------|
-----0-----0-----0-----0--|-----0-----0-----0-----0--|
--------------------------|--------------------------|
--0--------------------L--|--------------------------|
--------------------------|--0--------------------L--|


  E  E  E  E  E  E  E  E     E  E  E  E  E  E  E  E   
--8-----7-----5-----3-----|--3-----------------------|
--------------------------|--------------------------|
-----5-----4-----2-----0--|--------0-----------------|
--------------------------|-----0-----0--2--0-----0--|
--0--------------------L--|--------------------2-----|
--------------------------|--3-----------------------|


  E  E  E  E  E  E  E  E     E  E  E  E  Q    Q       E  Q    E  Q    Q     
-----------------------1--|------------------------|-----1-------1---------|
--------------1--3--4-----|-----------1--4---------|--4--3----4-------4----|
--------1--3--1-----------|--1--1--3-----5----5----|--3--3-----------------|
--1--1--------1-----------|--1-----------6----6----|--3---------------L----|
--3-----------------------|--3----------------3----|--1---------------L----|
--4-----------------------|------------------------|-----------------------|


  E  Q    E  Q    Q       E  E  E  E  E  E  E  E     E  E  E  E  E  E  E  E   
-----1-------4----3----|--0-----------------3-----|--0-----3-----1-----------|
--3----------3----3----|--------1-----3-----------|--------------------3-----|
--3-------3------------|-----0-----0-----0-----0--|-----0-----0-----0-----0--|
--3---------------L----|--2-----------------------|--L-----------------------|
--1---------------L----|--------------------------|--------------------3-----|
-----------------------|--------------------------|--------------------------|


  E  E  E  E  E  E  E  E     E  E  E  E  E  E  Q       H        E  E  E  E   
--0-----------------3-----|--0-----3-----1----------|--------------------0--|
--------1-----3-----------|--------------------3----|-----------------------|
-----0-----0-----0-----0--|-----0-----0-----0-------|--2--------L-----2-----|
--------------------------|-------------------------|--3--------L--3--------|
--------------------------|-------------------------|-----------------------|
--3-----------------------|--L----------------------|--1--------------------|


                                               ^                   
  H.           Q       E  E  E  Q.     Q       H.           E  E   
--------------------|------------------3----|--3---------------0--|
--3------------3----|--3--------1-----------|--3------------3--1--|
--4-----------------|--------2--------------|--2---------------0--|
--5-----------------|-----2-----------------|---------------------|
--------------------|--0--------------------|--2------------------|
--3-----------------|-----------------------|---------------------|


  Q    Q    Q    Q       H        H           E  E  E  E  H         
-----------------8----|--------------------|--3--------------------|
----------------------|--0-----------------|--1--------1--L--------|
------------5---------|--0--------0--------|-----------2--L--------|
-------5--------------|--0-----------------|--------3--------------|
--3-------------------|-----------2--------|-----3-----------------|
----------------------|--3-----------------|--1--------------------|


  H        Q    Q       Q    Q    Q    Q       H        Q    Q     
---------------------|-----------------3----|--3-------------7----|
--L-------------3----|--1-------------------|--3------------------|
--L--------5----4----|--2---------2---------|---------------------|
-----------5----5----|--2----2--------------|--2--------2---------|
-----------3----5----|--0-------------------|---------------------|
---------------------|----------------------|--0------------------|


  ^                     ^                                        
  Q.     Q.     Q       H.           Q       H         H         
--7------8-----------|--0-----------------|------------8--------|
--8------------------|--1------------3----|--1--------10--------|
--7-------------5----|--0-----------------|--2------------------|
---------------------|--2------------0----|---------------------|
--0------------------|--3-----------------|--0------------------|
---------------------|--------------------|------------8--------|


  ^        ^           ^        ^           ^         ^          
  H        H           H        H           Q    Q    Q    Q     
--------------------|-----------5--------|--3---------7---------|
--0--------3--------|--1--------6--------|--3---------8----8----|
--0--------4--------|--2--------5--------|--4----4----7---------|
--2--------5--------|--3-----------------|--5-------------------|
--2--------2--------|--3--------3--------|--5-------------------|
--------------------|--------------------|----------------------|


  E  E  E  E  E  E  E  E     E  E  E  E  E  E  E  E   
--0-----------------------|--------------------------|
--1-----------------3-----|--1-----------1-----3-----|
--0-----------------------|--------------------------|
--------------------------|--------------------------|
--3--3--3--3--3--3--3--3--|--0--0--0--0--0--0--0--0--|
--------------------------|--------------------------|


  E  E  E  E  E  E  E  E     E  E  E  E  E  E  E  E   
--------------------------|--------------------------|
--1-----------0-----------|--------------5-----------|
--2-----------------2-----|--0-----------------7-----|
--3-----------------------|--0-----------6-----6-----|
--3--3--3--3--3--3--3--3--|--------------------------|
--------------------------|--3--3--3--3--4--4--4--4--|


  E  E  E  E  E  E  E  E     E  E  E  E  E  E  E  E   
--------------------------|--3-----------0-----------|
--1-----------0-----1-----|--------------0-----------|
--2-----------------------|--0-----------------------|
--2-----------------------|--------------2-----------|
--0--0--0--0--0--0--0--0--|--2--2--2--2--2--2--2--2--|
--------------------------|--------------------------|


                             ^                        
  E  E  E  E  E  E  E  E     E  E  E  E  E  E  E  E   
--1-----0-----------------|--------------------0--1--|
--------------3-----1-----|--3-----3-----1-----------|
--------------------2-----|--3-----------------------|
--------------------------|--3-----------------------|
--3--3--3--3--3--3--3--3--|--1--1--1--1--1--1--1--1--|
--------------------------|--------------------------|


  ^                           ^            ^            
  E  E  E  E  E  E  E  E      E  E  E  E   E  E  E  E   
--3-----------------------|---8-----------15-----------|
--5-----------------3-----|--10-----------13-----------|
--5-----------------------|---9-----------12-----------|
--5--5--5--5--5--5--5--5--|----------------------------|
--3--3--3--3--3--3--3--3--|---0--0--0--0---0--0--0--0--|
--------------------------|----------------------------|


   ^           ^                                       
   E  E  E  E  E  E  E  E     E  E  E  E  E  E  E  E   
--12-----------7-----------|--5-----------------5--7--|
--12-----------8-----------|--6-----------------------|
--12-----------7-----------|--------------------------|
---0--0--0--0--0--0--0--0--|--------------------------|
---------------------------|--3--3--3--3--3--3--3--3--|
---------------------------|--------------------------|


  ^                           ^            ^            
  E  E  E  E  E  E  E  E      E  E  E  E   E  E  E  E   
--8-----------------7--8--|--15-----------12-----------|
--5-----------------------|--12-----------12-----------|
--5-----------------4--5--|--12-----------12-----------|
--------------------------|----------------------------|
--0--0--0--0--0--0--0--0--|----------------------------|
--------------------------|---0--0--0--0---0--0--0--0--|


   ^            ^                                       
   E  E  E  E   E  E  E  E     E  E  E  E  E  E  E  E   
---8------------------------|--------------6--6--6--6--|
--10------------8-----------|--6--6--6--6--6--6--6--6--|
---9------------9-----------|--7--7--7--7--7--7--7--7--|
---------------10-----------|--8--8--8--8--8--8--8--8--|
---0--0--0--0---0--0--0--0--|--8--8--8--8--------------|
----------------------------|--------------------------|


   E   E   E   E   E   E   E   E     E  E  E  E  E  E  E  E   
--10--10--10--10--13--13--13--13--|--------------------------|
--11--11--11--11--11--11--11--11--|--------------4--4--4--4--|
--10--10--10--10--10--10--10--10--|--------3--3--3--3--3--3--|
---8---8---8---8------------------|--5--5--5--5--5--5--5--5--|
----------------------------------|--6--6--6--6--6--6--6--6--|
----------------------------------|--6--6--------------------|


                             ^                       ^                      
  E  E  E  E  E  E  E  E     Q.     E  E  Q    E     Q.     E  E  E  E  E   
--------------------3--3--|--2------------2-------|---------------2--------|
--------------4--4--4--4--|--3---------3----------|--3---------3--------3--|
--------3--3--3--3--3--3--|--2------2----------2--|--4---------------2-----|
--5--5--5--5--5--5--5--5--|--0--------------------|--4------4--------------|
--6--6--6--6--------------|-----------------------|------------------------|
--------------------------|-----------------------|------------------------|


  ^                        ^                        ^                 
  Q.     E  E  E  E  E     Q.     E  E  E  E  E     W                 
------------------------|------------------------|--2----------------|
---------------3--------|------------------3-----|--3----------------|
--3---------3--------3--|--3------------3--------|--2----------------|
--3------3--------3-----|--5---------5-----------|--0----------------|
--1---------------------|--5------5-----------5--|--0----------------|
------------------------|--3---------------------|-------------------|


  ^                                           
  W                                           
--L----------------|----|----|----|----|----||
--L----------------|----|----|----|----|----||
--L----------------|----|----|----|----|----||
--L----------------|----|----|----|----|----||
--L----------------|----|----|----|----|----||
-------------------|----|----|----|----|----||


I wasn't quite sure how well this would work with guitar 
but I think that it turned out quite well.


Duration Legend
---------------
W - whole
H - half
Q - quarter
E - 8th
S - 16th
T - 32nd
X - 64th
. - note dotted
|-n-|  - n-tuplets


Tablature Legend
----------------
L - tied note
x - dead note
g - grace note
(n) - ghost note
> - accentuded note
NH - natural harmonic
AH - artificial harmonic
TH - tapped harmonic
SH - semi harmonic
PH - pitch harmonic
h - hammer on
p - pull off
b - bend
br - bendRelease
pb - preBend
pbr - preBendRelease
brb - bendReleaseBend
\n/ - tremolo bar dip
\n - tremolo bar dive
-/n - tremolo bar Release up
/n\ - tremolo bar inverted dip
/n - tremolo bar return
-\n - tremolo bar Release down
S - shift slide
s - legato slide
/ -  slide into from below or out of upwards
\ -  slide into from above or out of downwards
~ - vibrato
W - wide vibrato
tr - trill
TP - tremolo picking
T - tapping
S - slap
P - pop
< - fade in
^ - brush up
v - brush down

        
Comments

@Ennea (January 18, 2013 at 9:30 PM)