Gametabs
Home
Tabs
Random

Kiss

Average rating: 5.000

4 ratings

Composer:

Tabber:

Style:

Instrument:

Created: January 07, 2013 at 12:00 AM

                                            Kiss
                                
5 Centimeters Per Second
Tenmon / “V–å
Arranged for guitar by Basisti94 (Miro Laaksonen)
5.1.2013

     ^         ^            ^         ^            ^         ^          
     Q    Q    Q    Q       Q    Q    Q    Q       Q    Q    Q    Q     
E||--1----1----2----2----|--3----3----2----2----|--1----1----2----2----|
B||--3---------3---------|--4---------3---------|--3---------3---------|
G||--3---------3---------|--3---------3---------|--3---------3---------|
D||----------------------|----------------------|----------------------|
A||----------------------|----------------------|--1---------1---------|
E||----------------------|----------------------|----------------------|


  ^         ^           ^                          ^           ^            
  Q    Q    H           E  E  E  E  E  E  E  E     E  E  E  E  E  E  E  E   
--3----3----2--------|--1-----1-----2-----2-----|--3-----3-----2-----2-----|
--4---------3--------|--3-----3-----------------|--4-----4-----1-----------|
--3---------3--------|--3--------3-----3-----3--|-----3-----3-----3-----3--|
---------------------|-----3--------------------|-----5-----5--1-----------|
--1---------1--------|--1-----------1-----------|--6-----------------------|
---------------------|--------------------------|--------------------------|


  ^                          ^                     
  E  E  E  E  E  E  E  E     E  E  E  E  H         
--1-----1-----2-----2-----|--3-----3-----2--------|
--3-----3-----------3-----|--4-----4-----1--------|
--3--------3--3--3--3--3--|-----3-----3-----------|
-----3--------------------|-----5-----5--1--------|
--1-----------1-----------|--6--------------------|
--------------------------|-----------------------|


               ^                               ^                
  S S S S S E  E  S S S S S E     S S S S S E  E  S S S S S E   
-------------------------------|-------------------------------|
--------3---3--4--4-3-3--------|--------6-4-3--4--4-4-6-4-3----|
------5---3----3--------3------|------3-3-3----3------------3--|
----3---3------3----------3-3--|----1----------4---------------|
--1-------------------------L--|--1-------------------------L--|
-------------------------------|-------------------------------|


               ^                               ^                
  S S S S S E  E  S S S S S E     S S S S S E  E  S S S S S E   
-------------------------------|-------------------------------|
--------3---3--4--4-3-3--------|--------6-4-3--4--4-4-6-4-3----|
------5---3----3--------3------|------3-3-3----3------------3--|
----3---3------3----------3-3--|----1----------4---------------|
--1-------------------------L--|--1-------------------------L--|
-------------------------------|-------------------------------|


      ^                                      ^            
  S S Q    S S S S E  E  S  S    E  E  E  E  E  E  E  E   
-----------1------------------|--------------------------|
------1------3-----------1h-3-|--4--3--1--1--2-----------|
-------------------2----------|-----0--------3--5--3--3--|
----0-3----------0------------|--1-----------4--------1--|
--0---------------------------|--------------------------|
---------------3--------------|--------------2-----------|


      ^                                      ^            
  S S Q    S S S S E  E  S  S    E  E  E  E  E  E  E  E   
-----------1------------------|--------------------------|
------1------3-----------1h-3-|--4--3--1--1--2-----------|
------2------------2----------|-----0--------3--5--3--3--|
----0-3----------0------------|--1-----------4--------1--|
--0---------------------------|--------------------1-----|
---------------3--------------|--------------2-----------|


  ^                                          ^  ^  ^  ^   
  Q.     S  S E  E  E  E     E  S  S S S S S E  E  E  E   
--------------------3--6--|--6-------------6-------5-----|
--------------3--4-----4--|--------------6------6--6--6--|
--0------0h-3-------------|--5---------5-----2--5--5--5--|
--1-----------------------|--3-------3-------3--7-----7--|
--1-----------------------|-----1s-3---------3-----------|
--------------------------|------------------------------|


  S S S S S S S S S S S S S S S S    S S S S S S S S S S S S S S S S  
------3---1-0---1---1-0-0---------|--------3-1-0---0---0-0-----------|
--------------------------1-------|------------------------------5---|
----------------------------0-0---|------------------------7-6-7---7-|
----------------------------------|----------------------------------|
--3-3-3-3-3-3-3-3-2-2-2-2-2-2-2-2-|--2-2-2-2-2-2-2-2-0-0-0-0-4-4-4-4-|
----------------------------------|----------------------------------|


  S S S S S S S S S S S S S S S S    S S S S S S S S S S S S S S S S  
----------------------------------|------------------3-3-3---3-3-5-3-|
----6-6-6-8-6-5-6---6-6-6-8-6-5-6-|----3-3-3-3-3-5-6-------5---------|
----------------------------------|----------------------------------|
----------------------------------|----------------------------------|
--5-5-5-5-5-5-5-5-4-4-4-4-4-4-4-4-|--3-3-3-3-3-3-3-3-----------------|
----------------------------------|------------------3-3-3-3-3-3-3-3-|


  ^        ^    ^       ^    ^    ^     ^       ^                   
  H        Q    Q       Q    Q    Q     Q       H.           E  E   
--3------------------|------------6----10----|---------------8-----|
--4--------4---------|-------6----6----11----|------------------8--|
--5--------5----5----|--7----7----7----10----|--5------------------|
--6--------6----6----|--8----8----8----------|--6------------------|
-----------6----6----|--8--------------------|--6------------------|
---------------------|-----------------------|---------------------|


   ^                                     ^            ^         ^         
   E  E  E   E   E  E  E  E     H        H            H         H         
------------12--10-----------|--5--------8--------|--10--------15--------|
--11-------------------------|--5--------6--------|---8--------12--------|
--10-------------------------|--------------------|------------12--------|
---8-----8-------8-----8-----|--3-----------------|----------------------|
------0------0------0-----0--|--------------------|----------------------|
-----------------------------|--------------------|----------------------|


  ^        ^           ^         ^            ^        ^         
  H        H           H         H            H        H         
--0--------5--------|---------------------|--10-----------------|
--1-----------------|--8------------------|--10--------7--------|
--2--------5--------|--7---------7--------|--12--------5--------|
--3--------7--------|--9---------9--------|--12--------7--------|
-----------8--------|-----------10--------|------------5--------|
--1-----------------|------------0--------|---------------------|


            ^            ^          ^     ^        ^                  
  Q    Q    Q    Q       Q    Q     Q     Q        W                  
--3---------2----2----|--3----8----11----11----|---L----------------||
------------3---------|--4----------9----13----|---L----------------||
-------2----2---------|--5---------------13----|---L----------------||
--0---------0---------|--6---------------13----|---L----------------||
----------------------|------------------11----|---L----------------||
----------------------|------------------------|--------------------||



Duration Legend
---------------
W - whole
H - half
Q - quarter
E - 8th
S - 16th
T - 32nd
X - 64th
. - note dotted
|-n-|  - n-tuplets


Tablature Legend
----------------
L - tied note
x - dead note
g - grace note
(n) - ghost note
> - accentuded note
NH - natural harmonic
AH - artificial harmonic
TH - tapped harmonic
SH - semi harmonic
PH - pitch harmonic
h - hammer on
p - pull off
b - bend
br - bendRelease
pb - preBend
pbr - preBendRelease
brb - bendReleaseBend
\n/ - tremolo bar dip
\n - tremolo bar dive
-/n - tremolo bar Release up
/n\ - tremolo bar inverted dip
/n - tremolo bar return
-\n - tremolo bar Release down
S - shift slide
s - legato slide
/ -  slide into from below or out of upwards
\ -  slide into from above or out of downwards
~ - vibrato
W - wide vibrato
tr - trill
TP - tremolo picking
T - tapping
S - slap
P - pop
< - fade in
^ - brush up
v - brush down

        
Comments

No comments yet