Gametabs
Home
Tabs
Random

Kanae's Feelings

Average rating: 5.000

3 ratings

Composer:

Tabber:

Style:

Instrument:

Created: January 18, 2013 at 12:00 AM

                                    Kanae No Kimochi / Kanae's Feelings
                                
5 Centimeters Per Second
Tenmon 
Arranged for guitar by Basisti94 (Miro Laaksonen)
13.1.2013

The song is originally played with two guitars and there is already a tab of the original 
version on the site so I decided to arrange the song for solo guitar instead.


Tempo ~90 

     E  E  E  E  E  E     E  E  E  E  E  E     S  S E  E  E  E  E   
E||--------------------|--------------------|----------3-----------|
B||-----------5--------|-----------5--------|--3h-5-------5--------|
G||--------5-----5-----|--------5-----5-----|----------5-----5-----|
D||-----5-----------5--|-----5-----------5--|-------5-----------5--|
A||--3-----------------|--3-----------------|--3-------------------|
E||--------------------|--------------------|----------------------|


                                              ^                  
  S  S E  E  E  E  E     E  E  E  E  E  E     E  E  E  E  E  E   
----------3-----------|-----------3--------|--------------------|
--3h-5-------5--------|--3-----------0-----|--1--0--------------|
----------5-----5-----|--------0--------0--|--2-----2-----L--2--|
-------5-----------5--|-----0--------------|--2--------2--------|
--3-------------------|--------------------|--0-----------0-----|
----------------------|--3-----------------|--------------------|


  E  E  E  E  E  E     E  E  E  E  E  E     E  E  E  E  E  E   
--------------------|-----------1--------|--------------------|
-----------0--------|-----1--------1-----|--3-----1-----3-----|
--0-----------0-----|--2--------------2--|--------0--------0--|
--------2--------0--|--------3-----------|-----0-----0--------|
-----2--------------|-----3--------------|--------------------|
--0-----------------|--1-----------------|--1-----------------|


  E  E  E  E  E  E     S  S E  E  E  E  E     S  S E  E  E  E  E   
--------------------|----------3-----------|----------3-----------|
--5--------5--------|--3h-5-------5--------|--3h-5-------5--------|
--------5-----5-----|----------5-----5-----|----------5-----5-----|
-----5-----------5--|-------5-----------5--|-------5-----------5--|
--3-----------------|--3-------------------|--3-------------------|
--------------------|----------------------|----------------------|


                       ^                                       
  E  E  E  E  E  E     E  E  E  E  E  E     E  E  E  E  E  E   
-----------3--------|--------------------|--------------------|
--3-----------0-----|--1--0--------------|-----------0--------|
--------0--------0--|--2-----2-----L--2--|--0-----------0-----|
-----0--------------|--2--------2--------|--------2--------0--|
--------------------|--0-----------0-----|-----2--------------|
--3-----------------|--------------------|--0-----------------|


                                                             ^              
  E  E  E  E  E  E     E  E  E  E  E  E     H.               H        Q     
-----------1--------|--------------------|---------------|---8--------8----|
-----1--------1-----|--3-----1-----3-----|--1------------|--10-------------|
--2--------------2--|--------0--------0--|--2------------|---9-------------|
--------3-----------|-----0-----0--------|--2------------|-----------------|
-----3--------------|--------------------|--0------------|---0--------L----|
--1-----------------|--1-----------------|---------------|-----------------|


  E  E  Q    Q       E  E  E  E  E  E     E  E  E  E  E  E      H        Q     
------------------|--5-----------------|--------------5--7--|---8--------8----|
--8----------8----|-----------6--------|-----------6--------|--10-------------|
--------9---------|--------5-----5-----|--------5-----5-----|---9--------9----|
-----9------------|-----7-----------7--|-----7--------------|-----------------|
--7---------------|--8-----------------|--8-----------------|-----------------|
------------------|--------------------|--------------------|-----------------|


   Q    Q    Q       E  E  E  E  E  E     E  E  E  E  E  E   
--10----8----7----|--5-----------------|--------------------|
---8--------------|-----------6--------|--------------8--6--|
------------------|--------5-----5-----|--------5-----------|
------------------|-----7-----------7--|-----7-----7--------|
------------------|--8-----------------|--8-----------------|
------------------|--------------------|--------------------|


                                            ^                  
  E  E  E  E  E  E     E  E  E  E  E  E     E  E  E  E  E  E   
--0-----------0-----|-----------3--------|-----------0--------|
-----------1--------|--3-----------3-----|--1-----1-----1-----|
--0-----0-----0-----|--0-----0--------0--|--2-----2--------2--|
-----2-----------2--|-----0--------------|--2--2--------------|
--3-----------------|--2-----------------|--0-----------------|
--------------------|--------------------|--------------------|


  E  E  E  E  E  E     E  E  E  E  E  E     E  E  E  E  E  E   
--------------------|--0-----------0-----|--------------0-----|
--------------1--3--|-----------1--------|--3-----------------|
--------2-----------|--2-----2-----2-----|-----------1--------|
-----2-----2--------|-----3-----------3--|--------2-----2-----|
--0-----------------|--------------------|-----2-----------2--|
--------------------|--1-----------------|--0-----------------|


  ^                                                            
  E  E  E  E  E  E     E  E  E  E  E  E     E  E  E  E  E  E   
--------0-----------|--------------------|--0--------0--------|
--1--------1--------|--------------1--3--|-----------1--------|
--2--------------2--|--------2-----------|--2-----0-----0-----|
--2--2--------2-----|-----2-----2--------|-----2-----------2--|
--0-----------------|--0-----------------|--3-----------------|
--------------------|--------------------|--------------------|


  E  E  E  E  E  E     E  E  E  E  E  E     E  E  E  E  E  E   
--------------------|-----------0--------|--------------3-----|
--3-----1-----0-----|--1-----------1--3--|--3-----------3-----|
--1-----------------|--2-----2-----------|--0--------0-----0--|
-----------2-----2--|-----2--------------|--------0-----------|
-----2--------------|--0-----------------|-----2--------------|
--0-----------------|--------------------|--3-----------------|


  E  E  E  E  E  E     E  E  E  E  E  E     E  E  E  E  E  E   
--0--------0--------|--0-----------------|--------------0-----|
--------------1--3--|--------------0-----|--1-----------1-----|
--0-----0-----------|--1--------1-----1--|-----------2-----2--|
-----2--------------|--------2-----2-----|--3-----3-----------|
--3-----------------|-----2--------------|-----3--------------|
--------------------|--0-----------------|--1-----------------|


                       ^                                       
  E  E  E  E  E  E     E  E  E  E  E  E     E  E  E  E  E  E   
--------------------|--------------------|--------------------|
--3-----1-----0-----|--1--------1--------|-----------1-----0--|
-----------------0--|--2-----2-----2-----|--------2-----2--0--|
-----------0--------|--2--2-----------2--|-----2--------2-----|
-----2--------------|--0-----------------|--0-----------------|
--3-----------------|--------------------|--------------------|


                                            C                               
                       ^                    ^                       ^       
  E  E  E  E  E  E     E  E  E  E  E  E     H.              E  Q    Q.      
--------------0-----|--------------------|---------------|----------0------|
--1-----------1-----|--3-----1-----0-----|--1------------|--1--1----1------|
-----------2-----2--|--0--------------0--|--0------------|--0--0----0------|
--3-----3-----------|--0--------0--------|--2------------|--2-------2------|
-----3--------------|--2--2--------------|--3------------|-----------------|
--1-----------------|--3-----------------|---------------|-----------------|


  ^              
  H.             
--L------------||
--L------------||
--L------------||
--L------------||
---------------||
---------------||




Duration Legend
---------------
W - whole
H - half
Q - quarter
E - 8th
S - 16th
T - 32nd
X - 64th
. - note dotted
|-n-|  - n-tuplets


Tablature Legend
----------------
L - tied note
x - dead note
g - grace note
(n) - ghost note
> - accentuded note
NH - natural harmonic
AH - artificial harmonic
TH - tapped harmonic
SH - semi harmonic
PH - pitch harmonic
h - hammer on
p - pull off
b - bend
br - bendRelease
pb - preBend
pbr - preBendRelease
brb - bendReleaseBend
\n/ - tremolo bar dip
\n - tremolo bar dive
-/n - tremolo bar Release up
/n\ - tremolo bar inverted dip
/n - tremolo bar return
-\n - tremolo bar Release down
S - shift slide
s - legato slide
/ -  slide into from below or out of upwards
\ -  slide into from above or out of downwards
~ - vibrato
W - wide vibrato
tr - trill
TP - tremolo picking
T - tapping
S - slap
P - pop
< - fade in
^ - brush up
v - brush down

        
Comments

@Kougeru (January 20, 2013 at 7:04 PM)

Very nice version. Fun to play