Gametabs
Home
Tabs
Random

Normal Stage

Average rating: 5.000

1 ratings

Composer:

Tabber:

Style:

Instrument:

Created: August 15, 2014 at 12:00 AM

                         Puzzle Bobble SNES - Normal Stage     BASS TAB
               Composed by Kazuko Umino and Yasuko Yamada

                 Tabbed by auriplane ([email protected])

In the US, this game was called Bust-a-Move, not to be confused with the
dancing game on the Playstation.  I made two versions of the tab, one for
five-string, and one for four-string in Drop-D tuning.




                 Five-string version, standard tuning

G |----------------|----------------|----------------|----------------|
D |----------------|----------------|---86--65--5----|----5--5--------|
A |----5--5----8---|----5--5----8---|------------9--9|8--8--------8---|
E |6--6----8--8----|6--6----8--8----|6---------------|--------8--8----|
B |--------------6-|--------------6-|----------------|--------------6-|


G |----------------|----------------|----------------|----------------|
D |----------------|----------------|---86--65--5----|----------------|
A |----5--5----8---|----5--5----8---|------------9--9|---8------------|
E |6--6----8--8----|6--6----8--8----|6---------------|------6---------|
B |--------------6-|--------------6-|----------------|6---------------|


G |----------------|----------------|----------------|--------3--3----|
D |----------------|----------------|----------------|------3---------|
A |--------6--6----|5--5----------5-|3--3----------3-|----------------|
E |------6-------6-|------4-3--3----|------3---------|6--6----------6-|
B |4--4------------|----------------|--------6--6----|----------------|


G |----------------|----------------|----------------|
D |----------------|--------5--5----|------5---------|
A |6--6----7--7----|------8-------5-|--------8---8---|
E |------6-------6-|----------------|8--8------------|
B |----------------|6--6------------|----------------|


G |----------------|----------------|----------------|----------------|
D |----------------|----------------|----------------|----------------|
A |----------------|----------------|----------------|-----------88-8-|
E |----------------|----------------|----------------|----------------|
B |----------------|----------------|----------------|----------------|

        Repeat back to the beginning.





                  Four-string version, drop-D tuning

G |----------------|----------------|---31--1--------|----------------|
D |------------3---|------------3---|--------5--54--4|3--35--5----3---|
A |1--15--53--3----|1--15--53--3----|1---------------|--------3--3----|
D |--------------3-|--------------3-|----------------|--------------3-|


G |----------------|----------------|---31--1--------|----------------|
D |------------3---|------------3---|--------5--54--4|---3------------|
A |1--15--53--3----|1--15--53--3----|1---------------|------1---------|
D |--------------3-|--------------3-|----------------|3---------------|


G |----------------|----------------|----------------|--------3--3----|
D |--------1--1----|----------------|----------------|------3---------|
A |------1-------1-|5--5----------5-|3--3----------3-|1--1----------1-|
D |1--1------------|------6-5--5----|------5-3--3----|----------------|


G |----------------|----------------|----------------|
D |1--1----2--2----|------3-5--5----|------5-3---3---|
A |------1-------1-|--------------5-|3--3------------|
D |----------------|3--3------------|----------------|


G |----------------|----------------|----------------|----------------|
D |----------------|----------------|----------------|-----------33-3-|
A |----------------|----------------|----------------|----------------|
D |----------------|----------------|----------------|----------------|

        Repeat back to the beginning.


        
Comments

No comments yet