Gametabs
Home
Tabs
Random

Main Theme

Average rating: 5.000

1 ratings

Composer:

Tabber:

Style:

Instrument:

Created: February 09, 2009 at 12:00 AM

                               Bubble Bobble - Main Theme GUITAR TAB
                         Song by Tadashi Kimijima

                  Tabbed by auriplane ([email protected])
                              On Feb 9, 2009

There's already a tab for this song on GameTabs, but I can't play 
it because it uses more frets than my guitar has.  This tab is an
octave lower, so I can play it.

And anyway, I play it differently, so when I saw a request, I 
thought I'd make a tab of it myself even though there's already
a tab for it.  ^-^

The rhythm in the introduction is a little funny.  I've marked the time
signatures; anywhere I didn't mark is in 2/4 time.

    Intro
   2/4
e |----------------|----------------|----------------|----------------|
B |----------------|----------------|----------------|----------------|
G |8-----------8---|----7-----------|7---8-------10--|----------------|
D |----------------|--------10------|----------------|8---------------|
A |----------------|----------------|----------------|----------------|
E |----------------|----------------|----------------|----------------|
                                                      
e |----------------|----------------|
B |----------------|----------------|
G |----------------|--------7-------|
D |10--------------|----------------|
A |------------10--|----10----------|
E |----------------|----------------|

   2/8      3/8
e |--------|------------|------------|------------|
B |--------|------------|8-----------|10----------|
G |8-------|10----------|------------|------------|
D |--------|------------|------------|------------|
A |--------|------------|------------|------------|
E |--------|------------|------------|------------|

    Part A

e |----------------|----------------|----------------|----------------|
B |11--10--8-------|10--8-----------|8---------------|----------------|
G |--------------10|--------10--8---|----10--8-7---10|------------7---|
D |----------------|----------------|----------------|--------------10|
A |----------------|----------------|----------------|----------------|
E |----------------|----------------|----------------|----------------|
                                                      
e |----------------|----------------|----------------|----------------|
B |----------------|----------------|----8---10-8----|--------8---10--|
G |--------7---8---|----7-8-----10--|10--------------|10--10----------|
D |8---10----------|10--------------|----------------|----------------|
A |----------------|----------------|----------------|----------------|
E |----------------|----------------|----------------|----------------|
                                                      
e |----------------|----------------|----------------|----------------|
B |11--10--8-------|10--8-----------|8---------------|----------------|
G |--------------10|--------10--8---|----10--8-7---10|------------7---|
D |----------------|----------------|----------------|--------------10|
A |----------------|----------------|----------------|----------------|
E |----------------|----------------|----------------|----------------|
                                                      
e |----------------|----------------|----------------|----------------|
B |----------------|----------------|----8---10------|11------8---9---|
G |--------7---8---|----7-8-----10--|10--------10----|----10----------|
D |8---10----------|10--------------|----------------|----------------|
A |----------------|----------------|----------------|----------------|
E |----------------|----------------|----------------|----------------|
         
    Part B

e |----------------|----------------|----------------|----------------|
B |10------8---9---|10------8---10--|11------8---10--|11------8---10--|
G |----10----------|----10----------|----10----------|----10----------|
D |----------------|----------------|----------------|----------------|
A |----------------|----------------|----------------|----------------|
E |----------------|----------------|----------------|----------------|
                                                      
e |8---------------|8---------------|10--------------|10------8---10--|
B |--------8---10--|--------8---10--|--------8---10--|----11----------|
G |----10----------|----10----------|----10----------|----------------|
D |----------------|----------------|----------------|----------------|
A |----------------|----------------|----------------|----------------|
E |----------------|----------------|----------------|----------------|
                                                      
e |11----------11--|----10--8-------|10--------------|--------10------|
B |----------------|----------------|----------------|----------------|
G |----------------|----------------|----------------|----------------|
D |----------------|----------------|----------------|----------------|
A |----------------|----------------|----------------|----------------|
E |----------------|----------------|----------------|----------------|
                                                      
e |8---------------|--------10------|8---------------|----------------|
B |------------8---|----------------|----------------|--------8---9---|
G |----------------|----------------|----------------|----10----------|
D |----------------|----------------|----------------|----------------|
A |----------------|----------------|----------------|----------------|
E |----------------|----------------|----------------|----------------|
                                                      
    Part C

e |----------------|----------------|----------------|----------------|
B |10------8---9---|10------8---10--|11------8---10--|11------8---10--|
G |----10----------|----10----------|----10----------|----10----------|
D |----------------|----------------|----------------|----------------|
A |----------------|----------------|----------------|----------------|
E |----------------|----------------|----------------|----------------|
                                                      
e |8---------------|8---------------|10--------------|10------8---10--|
B |--------8---10--|--------8---10--|--------8---10--|----11----------|
G |----10----------|----10----------|----10----------|----------------|
D |----------------|----------------|----------------|----------------|
A |----------------|----------------|----------------|----------------|
E |----------------|----------------|----------------|----------------|
                                                      
e |11----------11--|----10--8-------|10--------------|--------10------|
B |----------------|----------------|----------------|----------------|
G |----------------|----------------|----------------|----------------|
D |----------------|----------------|----------------|----------------|
A |----------------|----------------|----------------|----------------|
E |----------------|----------------|----------------|----------------|
                                                      
e |8---------------|----10------10--|----------------|----------------|
B |----------------|----------------|11--------------|--------8---10--|
G |------------10--|--------10------|----------------|----10----------|
D |----------------|----------------|----------------|----------------|
A |----------------|----------------|----------------|----------------|
E |----------------|----------------|----------------|----------------|

    Repeat back to Part A.

        
Comments

@Blurillaz (February 09, 2009 at 11:22 PM)

Thanks! It's my favorite game.