Gametabs
Home
Tabs
Random

Kanashimi no Fuchi de

Average rating: 5.000

4 ratings

Composer:

Tabber:

Style:

Instrument:

Created: May 16, 2014 at 12:00 AM

            Title: Kanashimi No Fuchi De
SubTitle: Brynhildr In The Darkness
Artist: Nao Tokisawa, Yasunori Mochizuki, Yuichi Yagi
Tabber: Mitch Jackson
Tempo = 82
T/S = 4/4


   ♪♫•*¨*•.¸¸ CAPO 1 ¸¸.•*¨*•♫♪


     H           H                W                            H           H                W                          
E |----------------------------|----------------------------|-(2)------------------------|--2-------------------------|
B |--0-----------2-------------|----------------------------|--0-----------2-------------|--2-------------------------|
F#|--1-------------------------|--0-------------------------|--1-------------------------|--0-------------------------|
D |--4-------------------------|--0-------------------------|--4-------------------------|--0-------------------------|
A |----------------------------|--2-------------------------|----------------------------|--2-------------------------|
E |--0-------------------------|----------------------------|--0-------------------------|----------------------------|

  

     H           H                H           E  E  E  E       E  E  E  E  E  E  Q          H           H              
  |----------------------------|-----------------------2----|--2--------0----------------|----------------------------|
  |--0-----------2-------------|--------------------0-------|--------------------0-------|--3-----------2-------------|
  |--1-------------------------|--0--------------0----------|-----------1----------------|--4-----------4-------------|
  |--4-------------------------|--0-------------------------|--------------0--2----------|--------------2-------------|
  |----------------------------|--2-----------2-----2-------|--3-----3-------------------|----------------------------|
  |--0-------------------------|----------------------------|-----3----------------------|--2-------------------------|

  
     FERM                          ^                            ^                            ^                   
     H           E  E  E  E        E  E  E  Q     E  E  E       E  E  E  Q     E  E  E       E  E  E  Q.       Q        
  |----------------------------||--0-------------------------|--0-------------------------|--0-------------------------|
  |--L-----------L-----2--3----||--0-----0--3--------2--3----|--0--------3--------2--3----|--0--------3--------2-------|
  |--L-----------L--0----------||o----0-----------0----------|--------3--------0----------|--------1-------------------|
  |--L-----------L-------------||o---------------------------|-----2----------------------|-----0----------------------|
  |----------------------------||--2-------------------------|--0-------------------------|----------------------------|
  |----------------------------||----------------------------|----------------------------|--3-------------------------|

  |-------FIRST ENDING--------> |-------SECOND ENDING------->
     ^                             ^                            ^                   
     E  E  E  E  E  E  E  E        E  E  E  E  E  E  E  E       E  E  E  Q     E  Q          E  E  E  E  E  E  E  E     
  |----------------------------||----------------------------|----------------------------|--2-------------------------|
  |--0--------2--------2--3----||--0-----------------0--2----|--3--------2--------3-------|--2-----------------0--2----|
  |--1--------------0---------o||--1--------4-----4----------|--5-------------------------|--------0-----0--0----------|
  |--------2------------------o||--------2-------------------|--------2--4-----5----------|-----------0--------0-------|
  |-----2--------4-------------||-----2--------4-------------|-----2----------------------|--2-------------------------|
  |--0--------2----------------||--0--------2----------------|--0-------------------------|-----2----------------------|

                                                         
                                                                ^
     E  E  E  E  E  E  Q          E   E  E  E  E  E  E  E       E  E  E  E  E  E  E  E       E  E  E  E  E  E  E  E     
  |-(3)------(2)---------------|-----------------------------|----------------------------|--2--------------------2----|
  |--3--------2--------0-------|--2g3----------------0--2----|--3--------2--------3-------|--2-----------------0-------|
  |----------------------------|---------------0--0----------|--5-------------------------|--------0-----0--0----------|
  |--------2-----5-------------|------------0----------------|--------2--4-----2-----2----|-----------0--------0-------|
  |-----2-----------2----------|--2------2-------------------|-----2--------2-------------|--2-------------------------|
  |--0-------------------------|------2----------------------|--0-------------------------|-----2----------------------|

                                                                                
                                                                                          70BPM
     E  E  E  E  E  E  Q          E  E  E  E  H                Q     Q     Q     Q          W
  |--2--------0----------------|-------------(0)------------|----------------------------|----------------------------|
  |--1-----------------0-------|--3-----------2-------------|----------------------------|----------------------------|
  |-----------1--------1-------|--4-----0--0--4-------------|----------------------------|----------------------------|
  |--------------0--2----------|--------------2-------------|--------0-------------------|----------------------------|
  |--3-----3-------------------|-----4----------------------|--------------1-----4-------|----------------------------|
  |-----3----------------------|--2-------------------------|--2-------------------------|--2-------------------------|

                                                           
   77BPM                                                                                                     
     S S S S S S S S S S S S S S S S      S S S S S S S S S S S S S S S S      S S S S S S S S S S S S S S S S
  |------------2---------------3-------|------------4---------------3-------|------------2---------------3-------|
  |------0-2-3---3-2-----0-2-3---3-2---|------0-2-3---3-2-----0-2-3---3-2---|------0-2-3---3-2-----0-2-3---3-2---|
  |----0---------------0---------------|----0---------------0---------------|----0---------------0---------------|
  |------------------------------------|------------------------------------|------------------------------------|
  |--2---------------2-----------------|--2---------------2-----------------|--2---------------2-----------------|
  |------------------------------------|------------------------------------|------------------------------------|

                                   FERM
                               RALL---> ACCEL-----> RALL------------> 55BPM  90BPM 
     S S S S S S S S S S S S S S S S      E  E  E  E  E  E  E  E       Q     H.
  |------------4---------------3-------|-(2)------------------------|----------------------------|
  |------0-2-3---3-2-----0-2-3---3-2---|--0-----2--0----------------|----------------------------|
  |----0---------------0---------------|-----4-----------1----------|----------------------------|
  |------------------------------------|--------------2-------------|--0-------------------------|
  |--2---------------2-----------------|--2-----------------4--1----|----------------------------|
  |------------------------------------|----------------------------|--------3-------------------|



     W                            W
  |----------------------------|----------------------------||
  |----------------------------|----------------------------||
  |--0-------------------------|--L-------------------------||
  |--0-------------------------|--L-------------------------||
  |--2-------------------------|--L-------------------------||
  |--2-------------------------|--L-------------------------||

        
Comments

No comments yet