Gametabs
Home
Tabs
Random

Song of Iscalio

Average rating: 3.500

4 ratings

Composer:

Tabber:

Style:

Instrument:

Created: May 17, 2007 at 12:00 AM

            Song of Iscalio
Brigandine
Composed by Unknown

5/17/07

This tab is for the lead guitar only

e-----------------------------------------------------
B-----------------------------------------------------
G-----------------------------------------------------
D----------------------12-----11----------------------
A--------------------------------14-12-12---14-12-----
E--12-14-15--12-14-15-----------------------------12--

e-----------------------------------------------------
B-----------------------------------------------------
G-----------------------------------------------------
D----------------------12-----12----11-12---11----13--
A--------------------------------14------------14-----
E--12-14-15--12-14-15---------------------------------

Repeat from beginning

e-----------------------------------------
B-------------------10-------10-12-13-12--
G-----11-12-9-11-12----11-12--------------
D--12-------------------------------------
A-----------------------------------------
E-----------------------------------------

e----------------------------------------------------------------------------
B--------------13--------------13----12-12-10--------------------------------
G--11--------------------12-------------------12-11--------------------------
D--------13-----------------------------------------14-13--------------------
A---------------------------------------------------------15-14-12-----------
E------------------------------------------------------------------15-14-11--

e------------------------------------------------------
B------------------------------------------------------
G------------------------------------------------------
D----------------------12--------14-14-14-14-12--------
A---------------------------14------------------15-14--
E--12-14-15--12-14-15----------------------------------

e--------------------------------------------------
B--------------------------------------------------
G--------------------------------------------------
D--------------------------------------------------
A--12-14-15--12-14-15--14--------12--12--10-12-14--
E---------------------------15---------------------

e------------------------------------------------------
B------------------------------------------------------
G------------------------------------------------------
D----------------------12--------14-14-14-14-12--------
A---------------------------14------------------15-14--
E--12-14-15--12-14-15----------------------------------

e--------------------------------------------------
B--------------------------------------------------
G--------------------------------------------------
D--------------------------------------------------
A--12-14-15--12-14-15--14--------13--13--11-13-14--
E---------------------------15---------------------

After break...

e-----------------------------------------------------
B-----------------------------------------------------
G-----------------------------------------------------
D----------------------12-----11----------------------
A--------------------------------14-12-12---14-12-----
E--12-14-15--12-14-15-----------------------------12--

e-----------------------------------------------------
B-----------------------------------------------------
G-----------------------------------------------------
D----------------------12-----12----11-12---11----13--
A--------------------------------14------------14-----
E--12-14-15--12-14-15---------------------------------

Repeat from break

e-------12-11-12-11-12-11-12-11-12-10-----------------------
B-------------------------------------12-11-12-11-10--------
G----------------------------------------------------12-----
D--/12--------------------------------------------------14--
A-----------------------------------------------------------
E-----------------------------------------------------------

e---------------------------------------
B---------------------------------------
G--14-12--------------------------------
D--------14-13--------------------------
A--------------15-14-13-12----12----14--
E--------------------------15----15-----

e-------------------------
B--11b-------12-12-13-----
G-------------------------
D---------------------14--
A-------------------------
E-------------------------

e-----------------10---12---11--
B--10---12---13----------------- Tremolo picking here obviously
G-------------------------------
D-------------------------------
A-------------------------------
E-------------------------------

e------------------------------------------------------
B------------------------------------------------------
G------------------------------------------------------
D----------------------12--------14-14-14-14-12--------
A---------------------------14------------------15-14--
E--12-14-15--12-14-15----------------------------------

e--------------------------------------------------
B--------------------------------------------------
G--------------------------------------------------
D--------------------------------------------------
A--12-14-15--12-14-15--14--------12--12--10-12-14--
E---------------------------15---------------------

e------------------------------------------------------
B------------------------------------------------------
G------------------------------------------------------
D----------------------12--------14-14-14-14-12--------
A---------------------------14------------------15-14--
E--12-14-15--12-14-15----------------------------------

e--------------------------------------------------
B--------------------------------------------------
G--------------------------------------------------
D--------------------------------------------------
A--12-14-15--12-14-15--14--------13--13--11-13-14--
E---------------------------15---------------------

        
Comments

@stephencolbert5 (May 26, 2011 at 8:58 PM)

Thanks, Dude. This is a sweet song and a sweet tab.