Gametabs
Home
Tabs
Random

Overworld

Average rating: No ratings

Composer:

Tabber:

Style:

Instrument:

Created: June 19, 2011 at 12:00 AM

            Overworld (Main Theme)
Breath of Fire
Composer: Yoshini Aoki
Tabbed by Bacardibreezer
6/16/11

Guitar 1 - Piccolo

e|---------------------------|------------------------------------------|
B|--11---10~----8---10---11--|-----------------------16---15-13---------|
G|---------------------------|--12--15-14~----12--15------------15-14~--|
D|---------------------------|------------------------------------------|
A|---------------------------|------------------------------------------|
E|---------------------------|------------------------------------------|

e|---------------------------------------------------13~--|-----L-----|
B|---------14--13~-----16----------14--13--14--16---------|-----------|
G|--15~--------------------15~----------------------------|-----------|
D|--------------------------------------------------------|-----------|
A|--------------------------------------------------------|-----------|
E|--------------------------------------------------------|-----------|

e|---------------------------------13---------------------------------|
B|--13---15-13-----15-13---15-16------16-15-13~-------------15-15~----|
G|-------------------------------------------------15-13-12-----------|
D|--------------------------------------------------------------------|
A|--------------------------------------------------------------------|
E|--------------------------------------------------------------------|

e|------------------------|-----------------------------------------------13~-----------------|
B|------------------------|-----------------------------------13-14----16----------16-14--13~-|
G|--------------15-13-12--|--15----13-12-------12----13-15------------------------------------|
D|-----------12-----------|-----------------15------------------------------------------------|
A|--13-15-----------------|-------------------------------------------------------------------|
E|------------------------|-------------------------------------------------------------------|

e|--13-------------------------------------------------------------13---12----13-15~---|
B|--------------------16~------14-13--------13--14--13----------13---------------------|
G|----------------17-----------------15------------------------------------------------|
D|------------15---------------------------------------15----15------------------------|
A|--------15---------------------------------------------------------------------------|
E|-------------------------------------------------------------------------------------|

e|--------------13---15-13--------------------------------16--------------13--|
B|-----13-14-16------------16~----14-13--14~---13-14~--------14--15---16------|
G|--15------------------------------------------------------------------------|
D|----------------------------------------------------------------------------|
A|----------------------------------------------------------------------------|
E|----------------------------------------------------------------------------|

Start at second measure if repeating.

Guitar 2 - Strings

e|----------------------------13--|-------------------------------|---------------|
B|-------------------------13-----|-------------------------------|---------------|
G|--10---------------12-14--------|-------------------------------|---------------|
D|----------------15--------------|-----5------------5--8--7------|---------------|
A|----------13-15-----------------|--6-----8------6-----------8---|------------8--|
E|-------15-----------------------|-------------------------------|----5---8------|

e|--------------------------------------------|-----------|
B|--------------------------------------------|-----------|
G|--------------5-----------------5------5~---|-----L-----|
D|-------8-6~------------8--6--8--------------|-----------|
A|--9~------------8~--------------------------|-----------|
E|--------------------------------------------|-----------|

e|------------------------------------------------------------|---------------------------------------|---------|
B|------------------------------------------------------------|---------------------------------------|---------|
G|------------------------------------------------5~----------|---------------------------------------|---------|
D|--------------------------------5~------8~--------------8~--|---------------------------------------|---------|
A|---------5~------6~-----8~----------------------------------|--6~--------------6~-----8~------------|---------|
E|--7~--------------------------------------------------------|----------9~---------------------8~----|----L----|

e|-------------------------------------------------------------------------|
B|-------------------------------------------------------------------------|
G|-------------------------------------------------------------------------|
D|-------------------------------------------------------------------------|
A|--------------------6-6------6-6------8-8------8-8------7-7------7-7-----|
E|--8-8------8-8-----------------------------------------------------------|

e|------------------------------------------------|
B|------------------------------------------------|
G|------------------------------------------------|
D|------------------------------------------------|
A|--------5~----6~--------8--8~---------5~---6~---|
E|--6~--------------------------------------------|

If repeating start from the second measure.

Guitar 3 - Horn

e|------------------|----------------------------------------|----------8---------------8-------|
B|------------------|----------------------------------------|--8-10-11---11-10-8-10-11---11-10-|
G|------------------|--------------------------8----7-5------|----------------------------------|
D|------------------|-------8--7~-------5--8------------8--7-|----------------------------------|
A|------------------|--10------------------------------------|----------------------------------|
E|------------------|----------------------------------------|----------------------------------|

e|----------------------8-10-11-13--|-------------------------------------------|
B|------------6-8-10-11-------------|-------------------------------------------|
G|---------10-----------------------|------------------8------------------------|
D|-----7-8--------------------------|--------11-10-------8-----8-----6-----4----|
A|--10------------------------------|--13---------------------------------------|
E|----------------------------------|-------------------------------------------|

e|--------------10-11-13-11-10--11-10-8--|----------------|---------------|
B|--13-12-13-----------------------------|----------------|---------------|
G|---------------------------------------|----------------|---------------|
D|---------------------------------------|----------------|---------------|
A|---------------------------------------|----------------|---------------|
E|---------------------------------------|----------------|---------------|

e|----------------------------------|---------------------------------------------------------------------|
B|---------8-11-9-8----8------------|----------------------------------------------5---6---8--------------|
G|--8-10------------10-----7----7---|--------------------------------------5-6----------------------------|
D|---------------------------10-----|--8~---6-8--------------5-----6-8---------------------------------5--|
A|----------------------------------|--------------8-7-----8----------------------------------------3-----|
E|----------------------------------|------------------------------------------------------------3--------|

e|---------------------------------------------------------|
B|---------------------------------------------------------|
G|------5--------------------------------------------------|
D|------------8-7-5----7--8--5---------10------8---6--5----|
A|-----------------------------------8---------------------|
E|--------------------------------8------------------------|

e|---------------------------------------------------------------------------------9-11--|
B|----------------------------------------------------------------------------8-11-------|
G|------------------------------------------------------------------12------8------------|
D|------------------------------------------------------------11-13----8-11--------------|
A|------------------------------------------------------10-13----------------------------|
E|---------------------------------------------------------------------------------------|


        
Comments

No comments yet