Gametabs
Home
Tabs
Random

Memories

Average rating: No ratings

Composer:

Tabber:

Style:

Instrument:

Created: June 05, 2012 at 12:00 AM

            Memories
Breath of Fire
Composed By:  Tatsuya "Anie" Nishimura
Tabbed By: iamHoustonian
Date Tabbed: 6/3/2012





Guitar I

e|----17----------16----------------------------------------------
B|19------------------17----------15------17----------------------
G|----------------------------------18----------------------------
D|----------------------------------------------------------------
A|----------------------------------------------------------------
E|----------------------------------------------------------------
  1 + 2 + 3 + 4 + 1 + 2 + 3 + 4 + 1 + 2 + 3 + 4 + 1 + 2 + 3 + 4 +


e|----17----------16----19----------17----22----------------------
B|19------------------17----------19------------------------------
G|----------------------------------------------------------------
D|----------------------------------------------------------------
A|----------------------------------------------------------------
E|----------------------------------------------------------------
  1 + 2 + 3 + 4 + 1 + 2 + 3 + 4 + 1 + 2 + 3 + 4 + 1 + 2 + 3 + 4 +





Guitar II

e|----------------------------------------------------------------
B|--------12--------------10--------------8-----------------------
G|--------11--------------9---------------7-----------------------
D|--------12--------------11--------------9-----------------------
A|----------------------------------------------------------------
E|----------------------------------------------------------------
  1 + 2 + 3 + 4 + 1 + 2 + 3 + 4 + 1 + 2 + 3 + 4 + 1 + 2 + 3 + 4 +


e|----------------------------------------------------------------
B|--------12--------------10--------------10----------------------
G|--------11--------------9---------------7-----------------------
D|--------12--------------11--------------9-----------------------
A|----------------------------------------------------------------
E|----------------------------------------------------------------
  1 + 2 + 3 + 4 + 1 + 2 + 3 + 4 + 1 + 2 + 3 + 4 + 1 + 2 + 3 + 4 +


















        
Comments

No comments yet