Gametabs
Home
Tabs
Random

Truth and Dreams

Average rating: 5.000

4 ratings

Composer:

Tabber:

Style:

Instrument:

Created: June 27, 2021 at 12:00 AM

            Truth and Dreams
Breath of Fire IV
Composed by Yoshino Aoki
Arranged by William Geesdorf                                 

                                                       
Standard Tuning 
(Capo 4)


      E  E  E  E  E  E  E  E     E  E  E  Q    E  E  E   
E||---------0-----------3--2--|--0-------------0--------|
B||---------------3-----------|-----------3-------1-----|
G||*--2--------0-----0--------|--------0-------------0--|
D||*-----2--------------------|-----2-------------------|
A||---3-----------------------|--3----------------------|
E||---------------------------|-------------------------|


  E  E  E  E  E  E  Q       E  E  E  E  E  E  E  E     E  E  E  E  E  E  E  E   
-------------------------|--------------------------|--------------------0--2--|
--------0----------------|--3--------3--0-----------|--------0-----1-----------|
--5-----------0-----2----|--------0--------0--------|--2--------0-----0--------|
-----4-----4-----4-------|-----4--------------4--0--|-----2--------------------|
--5----------------------|--5-----------------------|--3-----------------------|
-------------------------|--------------------------|--------------------------|

                            1st Ending
  E  E  E  Q    E  E  E     E  E  E  E  E  E  E  E   
--5----------------3-----|--2--3--2-----0-----------|
-----0-------------0-----|-----------3-----0--------|
--------0-------0-----0--|--------------------2-----|
-----------4-------------|-----------------------2--|
--2----------------------|--0-----------------------|
-------------------------|--------------------------|

                               2nd Ending
  E  E  E  E  E  E  E  E       E  E  E  E  E  E  E  E   
-----------0--2--0-----0---||--2--3--2-----0-----------|
--------3-----------3------||-----------3-----0--------|
-----2--------------------*||--------------------2-----|
--0-----------------------*||-----------------------2--|
---------------------------||--0-----------------------|
---------------------------||--------------------------|


  E  E  E  E  Q.     E     E  E  E  E  E  E  E  E     E  E  E  E  H         
--2--3--2-----5------3--|--2--3--2-----0-----------|-----------0--2--------|
--3--------3------------|-----------3-----0--------|--------3--------------|
------------------------|--------------------2-----|-----2-----------------|
--0---------------------|-----------------------2--|--0--------------------|
------------------------|--0-----------------------|-----------------------|
------------------------|--------------------------|-----------------------|


                        ^                             
  Q       Q    H        Q    E  E  E  E  E  E  E  E   
--L----|----------------5----5-----5-----5-----5-----|
--L----|----------------4----------------------------|
--L----|--5----4--------4-------4-----4-----4-----4--|
--L----|--5----4-------------------------------------|
-------|--7----6-------------------------------------|
-------|---------------------------------------------|


                ^                             
  Q    H        Q    E  E  E  E  E  E  E  E   
----------------5----5-----5-----5-----5-----|
----------------5----------------------------|
--3----2--------5-------5-----5-----5-----5--|
--3----2-------------------------------------|
--5----3-------------------------------------|
---------------------------------------------|


                ^                             
  Q    H        Q    E  E  E  E  E  E  E  E   
----------------5----5-----5-----5-----5-----|
----------------4----------------------------|
----------------5-------5-----5-----5-----5--|
--5----4-------------------------------------|
--4----3-------------------------------------|
--6----5-------------------------------------|


                ^                                                        
  Q    H        Q    E  E  E  E  E  E  E  E     E  E  E  E  E  E  E  E   
----------------5----5-----5-----5-----------|--0-----------------------|
----------------5-------------------------3--|-----------3-----0--1--3--|
----------------3-------3-----3-----3--4-----|--------2-----2-----------|
--3----2-------------------------------------|-----3--------------------|
--3----1-------------------------------------|--------------------------|
-------3-------------------------------------|--1-----------------------|


  E  E  E  E  E  E  E  E     E  E  E  E  E  E  E  E     E  E  E  E  H         
--0-----------3--2--0-----|--0-----------------------|-----------------------|
-----------3-----------3--|-----------3-----0--1--3--|--0--------------------|
--------0-----------------|--------2-----2-----------|-----------0--2--------|
-----0--------------------|-----3--------------------|--------4--------------|
--------------------------|--------------------------|-----2-----------------|
--3-----------------------|--1-----------------------|--0--------------------|


  W                  
-------------------||
-------------------||
--L----------------||
--L----------------||
--L----------------||
--L----------------||




Duration Legend
---------------
W - whole
H - half
Q - quarter
E - 8th
S - 16th
T - 32nd
X - 64th
. - note dotted
|-n-|  - n-tuplets


Tablature Legend
----------------
L - tied note
^ - brush up
        
Comments

@insomniacmln (July 10, 2021 at 11:25 PM)

Best cover of the song yet