Gametabs
Home
Tabs
Random

Windy City

Average rating: 5.000

2 ratings

Composer:

Tabber:

Style:

Instrument:

Created: July 16, 2008 at 12:00 AM

            
Breath of Fire 3 - Windy City

This is the song you hear when you enter the city of Wyndia. 
I tabbed this one mostly in position, so it'll be easier to play. 
Be sure to check out the accompanying video for this tune. Enjoy

e----------------------------------------------------
B----------------------------------------------------
G---------------------------------------4-6----------
D-7-6-7-----4-2---------7-6-7-----7-6-7-----7--6-----
A-------7-------5-4-----------7----------------------
E-------------------5--------------------------------
	
e----------------------------------------------------
B----------------------------------------------------
G-----------------4---4---4-6------------------------
D-7-6-7-4---4-6-7---7---7-----7-4-3---4---4-6-7--6---
A---------------------------------------7----------7-
E----------------------------------------------------

e----------------------------------------------------
B----------------------------------------------------
G-------2-------------------2---------3--------------
D-5-3-5-----5-3-5-----5-3-5-----6-4-6----------------
A-----------------3----------------------------------
E----------------------------------------------------
	The song repeats from here, so play it til' you pass out.

        
Comments

@outerheaven2005 (September 26, 2008 at 6:21 AM)

Sounds spot on


@MahoChan (January 20, 2010 at 8:22 PM)

sounds cool ^^ nice tab