Gametabs
Home
Tabs
Random

Tears

Average rating: 5.000

2 ratings

Composer:

Tabber:

Style:

Instrument:

Created: June 17, 2010 at 12:00 AM

            Breath of Fire 3 - Tears

Here's another Breath of Fire 3 song (with more on the way). Check out the video if
you need the timing. Enjoy.

e-----------------5------------------------8-------10---8/6-5-----------------------
B-------5-6-8-5-6-----8/6-5--------8-10-11---10-11----------------------------------
G-----7------------------------5/7--------------------------------------------------
D-5/7-------------------------------------------------------------------------------
A-----------------------------------------------------------------------------------
E-----------------------------------------------------------------------------------

e-----------5-6-8-5-----------------------------------------------------------------
B---------8----------8/7-6---6-8---6--8--6----5-------------------------------------
G-7-----7---------------------------------------------------------------------------
D---8-5-----------------------------------------------------------------------------
A-----------------------------------------------------------------------------------
E-----------------------------------------------------------------------------------

        
Comments

@stephencolbert5 (May 26, 2011 at 8:49 PM)

Thanks, Dude. The tab is perfect.