Gametabs
Home
Tabs
Random

Topo's Groove Heaven

Average rating: No ratings

Composer:

Tabber:

Style:

Instrument:

Created: July 04, 2010 at 12:00 AM

            Song: Topo's Groove Heaven
Game: Brave Fencer Musashi
Composer: Tsuyoshi Sekito
Tabbed by: Daugreano


Guitar: 
 
   Q    E   E   H       Q    E   E   H       Q    E   E   H       Q    E   E   H
E|--------------------|--------------------|--------------------|--------------------|
B|------1-------------|--------------------|------1-------------|------3---1---------|
G|-0--------2---------|------2---0---------|-0--------2---------|-3------------------|
D|--------------------|-3------------------|--------------------|--------------------|
A|--------------------|--------------------|--------------------|--------------------|
E|--------------------|--------------------|--------------------|--------------------|


   Q    E   E   H       Q    E   E   H       E   E   E   E   E   E   Q      E   H..
E|--------------------|--------------------|------------------------------|------------|
B|------1-------------|--------------------|---------------------1--------|------------|
G|-0--------2---------|------2---0---------|-2-------0---2---0------------|------------|
D|--------------------|-3------------------|-----3------------------------|-3----------|
A|--------------------|--------------------|------------------------------|------------|
E|--------------------|--------------------|------------------------------|------------|

Repeat the whole thing a bunch of times...
        
Comments

No comments yet