Gametabs
Home
Tabs
Random

Re:Re:

Average rating: 5.000

6 ratings

Composer:

Tabber:

Style:

Instrument:

Created: February 05, 2016 at 12:00 AM

            Boku Dake ga Inai Machi (ERASED) | OP/Opening Theme Song | Re:Re:
By the Asian Kung-Fu Generation
Acoustic Fingerstyle Guitar Arrangement by Robert Wang


Steel Guitar (Capo 4)
                                                    Tap     The     Guitar     Body     
     H.           Q       Q    E  E  E  E  E  E     E   E   E   E   E      E   E    E   
E||--------------------|-------------------------|----------x-------x----------x-------|
B||--------------------|-------------------------|----------x-------x----------x-------|
G||--------------------|----------2--------0-----|--0h--2p--0h--2p--0h-----2p--0h---2--|
D||--------------------|--2----2-----0--2-----2--|-------------------------------------|
A||---------------x----|--2----------------------|-------------------------------------|
D||---------------x----|--2----------------------|--2----------------------------------|


  Q    E  E  E  E  E  E     E   E   E   E   E   E   E   E     Q    E  E  E  E  E  E   
-------------------------|----------x-------x-------x------|-------------------------|
-------------------------|----------x-------x-------x------|-------------------------|
-------------0-----0-----|--0h--2p--0h--2p--0h--2p--0h--2--|-------------------0-----|
--0----0--2-----2-----2--|---------------------------------|--0----0--2--0--2-----2--|
--3----------------------|--3------------------------------|--0----------------------|
-------------------------|---------------------------------|--0----------------------|


                                                                  PM    PM          PM  
  E   E   E   E   E   E   E   E     E  E  E  E  E  E  E  E     E  E  E  E  E  E  E  E   
----------x-------x-------x------|--------x-----x-----------|--------------------------|
----------x-------x-------x------|--------x-----x-----------|--------------------------|
--0h--2p--0h--2p--0h--2p--0h--2--|--------------------0-----|--------------0-----2-----|
---------------------------------|--0--2--0--2--0--2-----2--|--0-----2--------0--------|
---------------------------------|--3-----------------------|-----3-----3-----------3--|
--0------------------------------|--------------------------|--------------------------|


    E  E  Q    E  E  E  E     E  E  Q    E  E  E  E     E  E  Q    E  E  E  E     E  E  Q    Q    Q     4x
|--------------------------|-------------------------|-------------------------|------------------------||
|---3--3--3----1-----3-----|-------------------------|--3--3--3----1-----------|------------------------||
|*-------------0-----------|--7--7--7----5-----7-----|-------------0-----2--0--|--2--0--0--------------*||
|*--------2-------0-----0--|-------------5-----------|--------2-------0--------|--------2----2---------*||
|--------------------------|--------7-------5-----5--|-------------------------|--0---------------------||
|---3----------3-----------|--5----------5-----------|--2----------2-----------|-------------5----5-----||


  E  E  E  E  E  E  E  E     E  E  E  E  E  E  E  E     Q    E  E  E  E  E  E     E  E  E  E  E  E  E  E   
--------------------------|--------------------0-----|----------------------0--|--------------------0-----|
--3-----3-----1-----------|-----------------------3--|--1----------------------|-----3--3--------------3--|
--2-----------0-----2--0--|--2-----2--2-----2--------|--2-------------5--7-----|-----------5-----5--------|
--------------------------|--------------------------|-------------------------|--------------------------|
--0--0-----0-----0--------|--3--3--3-----3-----3-----|-------------------------|--------------0-----0--0--|
--------------------------|--------------------------|--0----0--2--5-----5--0--|--2-----2--5--------------|


  Q    E  E  Q    E  E     E  E  E  E  Q    E  E     Q    E  E  Q    E  E     Q    E  E  E  E  E  E   
------------------------|-------------------0-----|------------------------|-------------------0-----|
--1---------------------|----------------------3--|--1---------------------|----------------------3--|
--2-------0--2-------2--|--2--0--0----------------|--2------------------2--|--0----4--5-----5--------|
------------------------|-----------2--2----------|------------------------|-------------------------|
------------------------|--------------0----0--0--|------------------------|-------------0-----0--0--|
--0----0--2--5----5--5--|--2-----2----------------|--0----0--2--5----5--0--|--2----2--5--------------|


  Q    E  E  Q    E  E     E  E  E  E  Q    E  E     E  E  E  E  Q    E  E     E  E  E  E  Q    E  E   
------------------------|-------------------------|-------------------------|-------------------------|
--1---------------------|-------------------------|--3--3--3-----1----x-----|-------------------x-----|
--2----2-----2----0-----|--------0----------------|-------------------x-----|--7--7--7-----5----x-----|
---------------------2--|--2-----------7----------|-----------3----------0--|-------------------------|
------------------------|-------------------7--0--|-------------------------|-----------5----------7--|
--0----0--2--5----5--0--|--2--2--2--5--7----------|--3----------------------|--5----------------------|


  E  E  E  E  Q    E  E     E  E  E  E  Q    Q       E  E  E  E  Q    E  E     E  E  E  E  Q    E  E   
-------------------------|------------------------|-------------------------|-------------------------|
--3--3--3-----1----x-----|------------------------|--3--3--3-----1----x-----|-------------------x-----|
-------------------2--0--|--2--0--0---------------|-------------------x-----|--7--7--7-----5----x-----|
-----------2-------------|-----------0--2----x----|-----------3----------0--|--5-------------------2--|
-------------------------|--0----------------0----|-------------------------|-----------5-------------|
--2----------------------|------------------------|--3----------------------|--5----------------------|


  E  E  E  E  Q    E  E     Q    E  E  Q    E  E     E  E  E  E  E  E  E  E     E  E  E  E  E  E  E  E   
-------------------------|------------------------|--0-----------------------|--------------------------|
--3--3--3-----1----------|---------------------3--|--------------x-----x-----|--------------------------|
--0----------------------|--2-------0--0----------|--------x-----0-----2-----|--7-----------x-----x-----|
-----------2-------x--2--|------------------------|--------2-----------------|--------x-----5-----7-----|
-------------------x-----|--0----0-----0----0-----|--------------------------|--------7-----------------|
--2----------------------|------------------------|--3--3-----3-----3-----0--|--5--5-----5-----5-----5--|


  E  E  E  E  E  E  E  E     E  E  E  E  E  E  E  E     E  E  E  E  E  E  E  E     E  E  E  E  E  E  E  E   
--------------------------|--------------------------|--------------------------|--------------------------|
--1-----------x--------1--|--1--------3--5--------3--|--1-----------x-----x-----|--------------------x-----|
--------x-----0-----2-----|--------0-----------0-----|--------x-----0-----2-----|--7-----------x-----7-----|
--------2-----------------|-----2-----------0--------|--------2-----------------|--------x-----5-----------|
--------------------------|--0-----------------------|--------------------------|--------7-----------------|
--2--2-----2-----2--x-----|--------------5-----------|--3--3-----3-----3-----3--|--5--5-----5-----5-----5--|


                             ^                                                                      
  E  E  E  E  E  E  E  E     Q    Q    Q    Q         Q    E  E  Q    Q       Q    E  E  Q    Q     
--------------------------|--0-------------------||------------------------|-----------------------|
--1-----------x--------3--|--1---------3---------||---3-------3------------|--3-------3------------|
--0-----x-----0-----2-----|--2---------0---------||*--5----------5----0----|--0-------0--5----0----|
--------2-----------------|--2----2----0----0----||*--3----3-----3---------|--0----0-----0----0----|
--------------------------|--0-------------------||------------------------|-----------------------|
--2--2-----2-----2--x-----|-------x----5----x----||---3----x-----3----x----|--5----x-----5----x----|


  Q    E  E  Q    Q       Q    E  E  Q    E  E        Q    E  E  Q    E   E     E  E  E  E  E  E  E  E   
-----------------------|--0-----------------------||------------------5s--8--|--8--7--7--5--5--3--3--1--|
--3-------3--1---------|--1-------3---------------||--3-------3--1-----------|--5-----------0-----------|
--0----------0----0----|--2----------5----0--2/--*||--0----------0-----------|--5-----------0-----------|
--2----2---------------|--2----2-----5----0------*||--2----2-----------------|--------------------------|
-----------------------|--0-----------------------||-------------------------|--0-----------------------|
--2----x-----2----x----|-------x-----5----x-------||--2----x-----2-----------|--------------5-----3-----|


  ^                                      
  W                   W                  
--0----------------|--L----------------||
--1----------------|--L----------------||
--0----------------|--L----------------||
--2----------------|--L----------------||
--3----------------|--L----------------||
-------------------|-------------------||




Duration Legend
---------------
W - whole
H - half
Q - quarter
E - 8th
S - 16th
T - 32nd
X - 64th
. - note dotted
|-n-|  - n-tuplets


Tablature Legend
----------------
L - tied note
x - dead note
g - grace note
(n) - ghost note
> - accentuded note
NH - natural harmonic
AH - artificial harmonic
TH - tapped harmonic
SH - semi harmonic
PH - pitch harmonic
h - hammer on
p - pull off
b - bend
br - bendRelease
pb - preBend
pbr - preBendRelease
brb - bendReleaseBend
\n/ - tremolo bar dip
\n - tremolo bar dive
-/n - tremolo bar Release up
/n\ - tremolo bar inverted dip
/n - tremolo bar return
-\n - tremolo bar Release down
S - shift slide
s - legato slide
/ -  slide into from below or out of upwards
\ -  slide into from above or out of downwards
~ - vibrato
W - wide vibrato
tr - trill
TP - tremolo picking
T - tapping
S - slap
P - pop
< - fade in
^ - brush up
v - brush down

        
Comments

@Ennea (February 28, 2016 at 5:57 PM)

Fun as hell, but how do you do the percussions from the halfway mark onwards ? Have seen that a couple times like in your video but can't find any real information on how to do that correctly.