Gametabs
Home
Tabs
Random

Theme of Bloodstained Piano Version

Average rating: 5.000

2 ratings

Composer:

Tabber:

Style:

Instrument:

Created: November 01, 2020 at 12:00 AM

            Theme of Bloodstained Piano Version
from Bloodstained: Ritual of the Night
music by Michiru Yamane
tab by MechaKrauser

Guitar tuned down 1 step
6/4, then 4/4 time, 90bpm


    6/4
     E  E  E  E  Q    E  E  E  E  Q       E  E  E  E  Q    E  E  E  E  Q     
D||--0-----7-----5----0-----7-----5----|--------8----------------8----------|
A||--------0----------------0----------|--------------8----------------8----|
F||-----0-----0----------0-----0-------|--8-----0----------8-----0----------|
C||------------------------------------|------------------------------------|
G||------------------------------------|-----6-----6----------6-----6-------|
D||--0----------------0----------------|--8----------------8----------------|


  E  E  E  E  Q    E  E  E  E  Q       E  E  E  E  Q    E  E  E  E  Q     
--3-----2--3-------3-----2--3-------|--0--------0------------------------|
--0-----------0----3----------------|--1-----3----------3-----1--3-------|
-----0----------------2--------4----|--------------0----0-----------0----|
--2----------------0----------------|-----2----------------0-------------|
------------------------------------|--3----------------2----------------|
------------------------------------|------------------------------------|


  E  E  Q    Q    Q    Q    Q       E  E  Q    Q    Q    Q     Q     
--3--2----------------------5----|--3--2--3---------0----3S----8----|
--------5---------2----5---------|--------1----3--------------------|
--------2----4-------------------|-----0----------------------------|
-----2---------------------------|----------------------------------|
--0------------------------------|--3-------------------------------|
---------------------------------|----------------------------------|

                                                      
                                                       4/4        ^                
  E  E  Q    Q    Q    Q     Q       H        S S S S    E  E  E  E  E  E  E   E   
--5-----5--------------5----10----|--L--------0-2-3-5-|--3--------3--L--5--3S--7--|
-----7-------5----7---------------|-------------------|--------5--5--L------------|
--------7-------------------------|-------------------|-----4-----4--L------------|
-----7----------------------------|-------------------|--2--------2--L------------|
--5-------------------------------|-------------------|---------------------------|
----------------------------------|-------------------|---------------------------|


                                     ^                                           
  E  E  E  E  Q    E  E     E  E  E  E  E  E  E   E     E  E  E  E  Q      Q     
--5----------------------|--3--------3--L-----3S--7--|--5-----------7S----10----|
--5-----5-----5----7-----|--------5--5--L--5---------|--5-----5-----------------|
-----5-----5-------------|-----4-----4--L------------|-----5-----5--------------|
-----------7-------------|--2--------2--L------------|-----------7--------------|
--7-------------------7--|---------------------------|--7-----------------------|
-------------------------|---------------------------|--------------------------|


   E  E   E   E   E  E   Q       E  E  E  E  E  E  E  E     E  E  E  E  E  E  E   E   
--12---------10---------------|--7--------5-----------2--|--3--------3-----0--3S--7--|
------------------------10----|--0--------2--------5-----|--1--------1--------1------|
------0------------------7----|--------0-----------2-----|--------0--------0------0--|
---------10----------7--------|-----0-----------2--------|-----2---------------------|
------------------------------|--------------0-----------|--3-----------3------------|
---8-------------10-----------|--3-----------------------|---------------------------|


           ^                                                                     
  E  E  E  E  E  E  E  E     E  E  E  E  E  E  E  E     E  E  E  E  E  E  E  E   
--5--------7--L-----------|--------------------------|--0--0--0--0--0--0--0--0--|
--7-----7--7--L-----------|--0--0--0--0--0--0--0--0--|--2--2--2--2--2--2--2--2--|
-----7-----7--L-----7-----|--0--0--0--0--0--0--0--0--|--2--2--2--2--2--2--2--2--|
--0--------0--L--0-----0--|--2--2--2--2--2--2--2--2--|--------------------------|
--------------------------|--------------------------|--------------------------|
--------------------------|--0-----0-----0-----0-----|--0-----0-----0-----0-----|


                                                                   ^                 
  E  E  E  E  E  E    E   E      E   E   E   E   E   E   E   E     W                 
--7--7--7--7--7--7---15--15--|--14--14--14--10--10--10--10--10--|--7----------------|
--8--8--8--8--8--8-----------|--10--10--10--10--10--10--10--10--|--8----------------|
--9--9--9--9--9--9S--12--12--|--12--12--12--12--12--12--12--12--|--0----------------|
---------------------14--14--|----------------------------------|-------------------|
-----------------------------|----------------------------------|-------------------|
--0-----0-----0-------0------|---0-------0-------0-------0------|--0----------------|


  W                  
--L----------------||
--L----------------||
--L----------------||
-------------------||
-------------------||
--L----------------||




Duration Legend
---------------
W - whole
H - half
Q - quarter
E - 8th
S - 16th
T - 32nd
X - 64th
. - note dotted
|-n-|  - n-tuplets


Tablature Legend
----------------
L - tied note
x - dead note
g - grace note
(n) - ghost note
> - accentuded note
NH - natural harmonic
AH - artificial harmonic
TH - tapped harmonic
SH - semi harmonic
PH - pitch harmonic
h - hammer on
p - pull off
b - bend
br - bendRelease
pb - preBend
pbr - preBendRelease
brb - bendReleaseBend
\n/ - tremolo bar dip
\n - tremolo bar dive
-/n - tremolo bar Release up
/n\ - tremolo bar inverted dip
/n - tremolo bar return
-\n - tremolo bar Release down
S - shift slide
s - legato slide
/ -  slide into from below or out of upwards
\ -  slide into from above or out of downwards
~ - vibrato
W - wide vibrato
tr - trill
TP - tremolo picking
T - tapping
S - slap
P - pop
< - fade in
^ - brush up
v - brush down

        
Comments

@MechaKrauser (November 01, 2020 at 8:12 PM)

https://mega.nz/file/6d5g2IbR#DrAf1DTrCRfesFcHgpfUgimTkvAiVljtoqRv1kZkfXc Zip contains the tab in GP7, GP5, PDF, midi, and txt formats. Happy playing! :D