Gametabs
Home
Tabs
Random

Kain's Masoleum

Average rating: No ratings

Composer:

Tabber:

Style:

Instrument:

Created: January 20, 2010 at 12:00 AM

            Title: Kain's Masoleum
Artist: Steve Henefin
Album: Blood Omen: Legacy of Kain
Author: Randall Scott Stephens (xuwawa at gametabs.net)

switches between D# minor and D minor every bar
30 bpm, 3/4 time (thanks to drums, otherwise 1/1)

easiest song ever?

Guitar= Strings
E|-------|-------|
B|-------|-------|
G|-3-----|-2-----|
D|-4-----|-3-----| 6x
A|-6-----|-5-----|
E|-------|-------|

Bass= Voice Ooos + Choir Aahs
E|-------|-------|-------|-------|
D|-------|-------|-------|-------|
A|-6-----|-5-----|-6-----|-5-----| 1x
E|-------|-------|-------|-------|

G|-------|-------|-------|-7-----|
D|-------|-------|-------|-------|
A|-6-----|-5-----|-6-----|-5-----| 2x
E|-------|-------|-------|-------|

        
Comments

No comments yet