Gametabs
Home
Tabs
Random

Soundscape to Ardor

Average rating: 4.875

8 ratings

Composer:

Tabber:

Style:

Instrument:

Created: July 01, 2009 at 12:00 AM

            This song is also known as "Morning Remembrance"

Composed by Shirou Sagisu
Transcribed/Tabbed by ChelseaRare


      E  E  E  E   E  E  E   E     E  E  E  E   E  E  E   E   
E||---------8--7--10--8--7------|--------8--7--10--8--7------|
B||-------------------------10--|------------------------10--|
G||*-----9----------------------|-----9----------------------|
D||*--7-------------------------|--7-------------------------|
A||-----------------------------|----------------------------|
E||-----------------------------|----------------------------|


  E   E  E  E   E  E  E   E     E   E  E  E   E  E  E   E   
---------8--7--10--8--7------|---------8--7--10--8--7------|
-------------------------10--|-------------------------10--|
-----------------------------|-----------------------------|
-----10----------------------|-----10----------------------|
--8--------------------------|--8--------------------------|
-----------------------------|-----------------------------|


   E   E  E  E   E  E  E   E      E   E  E  E   E  E  E   E   
----------8--7--10--8--7------|----------8--7--10--8--7------|
--------------------------10--|--------------------------10--|
------------------------------|------------------------------|
------12----------------------|------12----------------------|
--10--------------------------|--10--------------------------|
------------------------------|------------------------------|


  E  E  E  E   E  E  E   E     E  E  E  E   E  E  E   E     
--------8--7--10--8--7------|--------8--7--10--8--7-------||
------------------------10--|------------------------10---||
-----9----------------------|-----9----------------------*||
--7-------------------------|--7-------------------------*||
----------------------------|-----------------------------||
----------------------------|-----------------------------||


  E  E  E  E  E  E  E  E     E  E  E  E  E  E  E  E   
--------------------------|--------------------------|
--------1--0--3--1--0-----|--------1--0--3--1--0-----|
-----------------------2--|-----------------------2--|
-----2--------------------|-----2--------------------|
--0-----------------------|--0-----------------------|
--------------------------|--------------------------|


  E  E  E  E  E  E  E  E     E  E  E  E  E  E  E  E   
--------------------------|--------------------------|
--------1--0--3--1--0-----|--------1--0--3--1--0-----|
-----------------------2--|-----------------------2--|
--------------------------|--------------------------|
-----3--------------------|-----3--------------------|
--1-----------------------|--1-----------------------|


  E  E  E  E  E  E  E  E     E  E  E  E  E  E  E  E   
--------------------------|--------------------------|
--------1--0--3--1--0-----|--------1--0--3--1--0-----|
-----------------------2--|-----------------------2--|
-----0--------------------|-----0--------------------|
--------------------------|--------------------------|
--3-----------------------|--3-----------------------|


  E  E  E  E  E  E  E  E     E  E  E  E  E  E  E  E   
--------------------------|--------------------------|
--------1--0--3--1--0-----|--------1--0--3--1--0-----|
-----------------------2--|-----------------------2--|
-----2--------------------|-----2--------------------|
--0-----------------------|--0-----------------------|
--------------------------|--------------------------|


  E  E  E  E  E  E  E  E     E  E  E  E  E  E  E  E   
--------------------------|--------------------------|
--------1--0--3--1--0-----|--------1--0--3--1--0-----|
-----------------------2--|-----------------------2--|
-----2--------------------|-----2--------------------|
--0-----------------------|--0-----------------------|
--------------------------|--------------------------|


  E  E  E  E  E  E  E  E     E  E  E  E  E  E  E  E   
--------------------------|--------------------------|
--------1--0--3--1--0-----|--------1--0--3--1--0-----|
-----------------------2--|-----------------------2--|
--------------------------|--------------------------|
-----3--------------------|-----3--------------------|
--1-----------------------|--1-----------------------|


  E  E  E  E  E  E  E  E     E  E  E  E  E  E  E  E   
--------------------------|--------------------------|
--------1--0--3--1--0-----|--------1--0--3--1--0-----|
-----------------------2--|-----------------------2--|
-----0--------------------|-----0--------------------|
--------------------------|--------------------------|
--3-----------------------|--3-----------------------|


  E  E  E  E  E  E  E  E     E  E  E  E  E  E  E  E   
--------------------------|--------------------------|
--------1--0--3--1--0-----|--------1--0--3--1--0-----|
-----------------------2--|-----------------------2--|
-----2--------------------|-----2--------------------|
--0-----------------------|--0-----------------------|
--------------------------|--------------------------|


  E  E  E  E  E  E  E  E     E  E  E  E  E  E  E  E   
--------------------------|--------------------------|
--------1--0--3--1--0-----|--------1--0--3--1--0-----|
-----------------------2--|-----------------------2--|
-----2--------------------|-----2--------------------|
--0-----------------------|--0-----------------------|
--------------------------|--------------------------|


  E  E  E  E  E  E  E  E     E  E  E  E  E  E  E  E   
--------------------------|--------------------------|
--------1--0--3--1--0-----|--------1--0--3--1--0-----|
-----------------------2--|-----------------------2--|
--------------------------|--------------------------|
-----3--------------------|-----3--------------------|
--1-----------------------|--1-----------------------|


  E  E  E  E  E  E  E  E     E  E  E  E  E  E  E  E   
--------------------------|--------------------------|
--------1--0--3--1--0-----|--------1--0--3--1--0-----|
-----------------------2--|-----------------------2--|
-----0--------------------|-----0--------------------|
--------------------------|--------------------------|
--3-----------------------|--3-----------------------|


  E  E  E  E  E  E  E  E     E  E  E  E  E  E  E  E   
--------------------------|--------------------------|
--------1--0--3--1--0-----|--------1--0--3--1--0-----|
-----------------------2--|-----------------------2--|
-----2--------------------|-----2--------------------|
--0-----------------------|--0-----------------------|
--------------------------|--------------------------|


  E  E  E  E  E  E  E  E     E  E  E  E  E  E  E  E   
--------------------------|--------------------------|
--------1--0--3--1--0-----|--------1--0--3--1--0-----|
-----------------------2--|-----------------------2--|
-----2--------------------|-----2--------------------|
--0-----------------------|--0-----------------------|
--------------------------|--------------------------|


  E  E  E  E  E  E  E  E     E  E  E  E  E  E  E  E   
--------------------------|--------------------------|
--------1--0--3--1--0-----|--------1--0--3--1--0-----|
-----------------------2--|-----------------------2--|
--------------------------|--------------------------|
-----3--------------------|-----3--------------------|
--1-----------------------|--1-----------------------|


  E  E  E  E  E  E  E  E     E  E  E  E  E  E  E  E   
--------------------------|--------------------------|
--------1--0--3--1--0-----|--------1--0--3--1--0-----|
-----------------------2--|-----------------------2--|
-----0--------------------|-----0--------------------|
--------------------------|--------------------------|
--3-----------------------|--3-----------------------|


  E  E  E  E  E  E  E  E     E  E  E  E  E  E  E  E   
--------------------------|--------------------------|
--------1--0--3--1--0-----|--------1--0--3--1--0-----|
-----------------------2--|-----------------------2--|
-----2--------------------|-----2--------------------|
--0-----------------------|--0-----------------------|
--------------------------|--------------------------|


  E  E  E  E  E  E  E  E     E  E  E  E  E  E  E  E   
--------------------------|--------------------------|
--------1--0--3--1--0-----|--------1--0--3--1--0-----|
-----------------------2--|-----------------------2--|
-----2--------------------|-----2--------------------|
--0-----------------------|--0-----------------------|
--------------------------|--------------------------|


  E  E  E  E  E  E  E  E     E  E  E  E  E  E  E  E   
--------------------------|--------------------------|
--------1--0--3--1--0-----|--------1--0--3--1--0-----|
-----------------------2--|-----------------------2--|
--------------------------|--------------------------|
-----3--------------------|-----3--------------------|
--1-----------------------|--1-----------------------|


  E  E  E  E  E  E  E  E     E  E  E  E  E  E  E  E   
--------------------------|--------------------------|
--------1--0--3--1--0-----|--------1--0--3--1--0-----|
-----------------------2--|-----------------------2--|
-----0--------------------|-----0--------------------|
--------------------------|--------------------------|
--3-----------------------|--3-----------------------|


  E  E  E  E  E  E  E  E     E  E  E  E  E  E  E  E   
--------------------------|--------------------------|
--------1--0--3--1--0-----|--------1--0--3--1--0-----|
-----------------------2--|-----------------------2--|
-----2--------------------|-----2--------------------|
--0-----------------------|--0-----------------------|
--------------------------|--------------------------|


  E  E  E  E  E  E  E  E     E  E  E  E  E  E  E  E   
--------------------------|--------------------------|
--------1--0--3--1--0-----|--------1--0--3--1--0-----|
-----------------------2--|-----------------------2--|
-----2--------------------|-----2--------------------|
--0-----------------------|--0-----------------------|
--------------------------|--------------------------|


  E  E  E  E  E  E  E  E     E  E  E  E  E  E  E  E   
--------------------------|--------------------------|
--------1--0--3--1--0-----|--------1--0--3--1--0-----|
-----------------------2--|-----------------------2--|
--------------------------|--------------------------|
-----3--------------------|-----3--------------------|
--1-----------------------|--1-----------------------|


  E  E  E  E  E  E  E  E     E  E  E  E  E  E  E  E   
--------------------------|--------------------------|
--------1--0--3--1--0-----|--------1--0--3--1--0-----|
-----------------------2--|-----------------------2--|
-----0--------------------|-----0--------------------|
--------------------------|--------------------------|
--3-----------------------|--3-----------------------|


  E  E  E  E  E  E  E  E     E  E  E  E  E  E  E  E   
--------------------------|--------------------------|
--------1--0--3--1--0-----|--------1--0--3--1--0-----|
-----------------------2--|-----------------------2--|
-----2--------------------|-----2--------------------|
--0-----------------------|--0-----------------------|
--------------------------|--------------------------|


  E  E  E  E  E  E  E  E     E  E  E  E  E  E  E  E   
--------------------------|--------------------------|
--------1--0--3--1--0-----|--------1--0--3--1--0-----|
-----------------------2--|-----------------------2--|
-----2--------------------|-----2--------------------|
--0-----------------------|--0-----------------------|
--------------------------|--------------------------|


  E  E  E  E  E  E  E  E     E  E  E  E  E  E  E  E   
--------------------------|--------------------------|
--------1--0--3--1--0-----|--------1--0--3--1--0-----|
-----------------------2--|-----------------------2--|
--------------------------|--------------------------|
-----3--------------------|-----3--------------------|
--1-----------------------|--1-----------------------|


  E  E  E  E  E  E  E  E     E  E  E  E  E  E  E  E   
--------------------------|--------------------------|
--------1--0--3--1--0-----|--------1--0--3--1--0-----|
-----------------------2--|-----------------------2--|
-----0--------------------|-----0--------------------|
--------------------------|--------------------------|
--3-----------------------|--3-----------------------|


  E  E  E  E  E  E  E  E     E  E  E  E  E  E  E  E    
--------------------------|--------------------------||
--------1--0--3--1--0-----|--------1--0--3--1--0-----||
-----------------------2--|-----------------------2--||
-----2--------------------|-----2--------------------||
--0-----------------------|--0-----------------------||
--------------------------|--------------------------||


Guitar 2

E||--------|-------|-------|-------|-------|-------|-------|--------||
B||--------|-------|-------|-------|-------|-------|-------|--------||
G||*-------|-------|-------|-------|-------|-------|-------|-------*||
D||*-------|-------|-------|-------|-------|-------|-------|-------*||
A||--------|-------|-------|-------|-------|-------|-------|--------||
E||--------|-------|-------|-------|-------|-------|-------|--------||


  W                   W                   W                   W                 
-------------------|-------------------|-------------------|-------------------|
-------------------|-------------------|-------------------|-------------------|
-------------------|-------------------|-------------------|-------------------|
-------------------|-------------------|-------------------|-------------------|
--0----------------|--L----------------|--2----------------|--L----------------|
-------------------|-------------------|-------------------|-------------------|


  W                   W                   H        H         
-------------------|-------------------|--------------------|
-------------------|-------------------|--------------------|
-------------------|-------------------|--------------------|
-------------------|-------------------|--0--------2--------|
--3----------------|--L----------------|--------------------|
-------------------|-------------------|--------------------|


  W                   W                   W                   W                 
-------------------|-------------------|-------------------|-------------------|
-------------------|-------------------|-------------------|-------------------|
--0----------------|-------------------|-------------------|-------------------|
-------------------|--7----------------|--L----------------|--9----------------|
-------------------|-------------------|-------------------|-------------------|
-------------------|-------------------|-------------------|-------------------|


  W                    W                    W                 
-------------------|--------------------|--------------------|
-------------------|--------------------|--------------------|
-------------------|--------------------|--------------------|
--L----------------|--10----------------|---L----------------|
-------------------|--------------------|--------------------|
-------------------|--------------------|--------------------|


  H        H           W                    W                 
--------------------|-------------------|--------------------|
--------------------|--8----------------|--10----------------|
--7--------9--------|-------------------|--------------------|
--------------------|-------------------|--------------------|
--------------------|-------------------|--------------------|
--------------------|-------------------|--------------------|


   W                    W                    W                 
--------------------|--------------------|--------------------|
---L----------------|--12----------------|---L----------------|
--------------------|--------------------|--------------------|
--------------------|--------------------|--------------------|
--------------------|--------------------|--------------------|
--------------------|--------------------|--------------------|


   W                    W                    H         H         
--------------------|--------------------|--10--------12--------|
--13----------------|---L----------------|----------------------|
--------------------|--------------------|----------------------|
--------------------|--------------------|----------------------|
--------------------|--------------------|----------------------|
--------------------|--------------------|----------------------|


   W                   W                   H        Q    Q     
--15----------------|-------------------|---------------------|
--------------------|-------------------|---------------------|
--------------------|-------------------|---------------------|
--------------------|-------------------|---------------------|
--------------------|--3----------------|--L--------2----3----|
--------------------|-------------------|---------------------|


  W                   H        Q    Q       W                 
-------------------|---------------------|-------------------|
-------------------|---------------------|-------------------|
-------------------|---------------------|-------------------|
-------------------|---------------------|-------------------|
--5----------------|--L--------3----5----|--7----------------|
-------------------|---------------------|-------------------|


  H        Q    Q       H        H           W                 
---------------------|--------------------|-------------------|
---------------------|--------------------|-------------------|
---------------------|--------------------|-------------------|
---------------------|--------------------|-------------------|
--L--------5----7----|--3--------2--------|--0----------------|
---------------------|--------------------|-------------------|


  W                   H        Q    Q       W                 
-------------------|---------------------|-------------------|
-------------------|---------------------|-------------------|
--5----------------|--L--------4----5----|--7----------------|
-------------------|---------------------|-------------------|
-------------------|---------------------|-------------------|
-------------------|---------------------|-------------------|


  H        Q    Q       W                   H        Q    Q     
---------------------|-------------------|---------------------|
---------------------|-------------------|---------------------|
--L--------5----7----|--9----------------|--L--------7----9----|
---------------------|-------------------|---------------------|
---------------------|-------------------|---------------------|
---------------------|-------------------|---------------------|


  H        H           W                   W                 
--------------------|-------------------|--8----------------|
--------------------|-------------------|-------------------|
--5--------4--------|--2----------------|-------------------|
--------------------|-------------------|-------------------|
--------------------|-------------------|-------------------|
--------------------|-------------------|-------------------|


  H        Q    Q        W                   H        Q     Q     
--L--------7----8----|--10----------------|--L--------8----10----|
---------------------|--------------------|----------------------|
---------------------|--------------------|----------------------|
---------------------|--------------------|----------------------|
---------------------|--------------------|----------------------|
---------------------|--------------------|----------------------|


   W                   H         Q     Q       H        H         
--12----------------|--L--------10----12----|--8--------7--------|
--------------------|-----------------------|--------------------|
--------------------|-----------------------|--------------------|
--------------------|-----------------------|--------------------|
--------------------|-----------------------|--------------------|
--------------------|-----------------------|--------------------|


  W                                                                             
--5----------------|-------------------|-------------------|-------------------|
-------------------|-------------------|-------------------|-------------------|
-------------------|-------------------|-------------------|-------------------|
-------------------|-------------------|-------------------|-------------------|
-------------------|-------------------|-------------------|-------------------|
-------------------|-------------------|-------------------|-------------------|


-------------------|-------------------|-------------------|-------------------|
-------------------|-------------------|-------------------|-------------------|
-------------------|-------------------|-------------------|-------------------|
-------------------|-------------------|-------------------|-------------------|
-------------------|-------------------|-------------------|-------------------|
-------------------|-------------------|-------------------|-------------------|


-------------------||
-------------------||
-------------------||
-------------------||
-------------------||
-------------------||


Duration Legend
---------------
W - whole
H - half
Q - quarter
E - 8th

        
Comments

@Ginko (July 02, 2009 at 1:10 AM)

YAY!!

but seriously... omfg already back to filler D: im so hurt... its like their putting that knife back in >.< SO PAINFUL!!


@crimsondarkn (August 23, 2009 at 3:49 AM)

This is one sexy tab. I'm a big fan of Bleach. I hope you do more.

This is a very nice song. Do u plan on doing any of the spanish arrancar songs?

=)


@MahoChan (January 10, 2010 at 4:56 PM)

this tab is amazing well done ^^ my friends couldnt close there mouths xD


@MassTheMono (May 21, 2010 at 4:51 PM)

Simple, yet effective. Nice work. Thanks for the tab. =)


@DanteUruzu (June 20, 2010 at 3:25 PM)

You did an awesome job on this. Thank you.


@dragoon120 (October 31, 2011 at 4:20 AM)

I can't believe I found this song man.