Gametabs
Home
Tabs
Random

Pain (8 String Version)

Average rating: 5.000

4 ratings

Composer:

Tabber:

Style:

Instrument:

Created: January 07, 2013 at 12:00 AM

            Title: Pain
SubTitle: Bleach OST
Artist: Shiro Sagisu
Tabber: Mitch Jackson
Tempo = 75
T/S = 4/4

I decided to put my 8 string to good use, so for those of you who have one too enjoy! :3
This song is an unreleased track which does not have a proper title
Left hand fingering is included in GP file as a guide
Any note durations without any notes under them are rests

---------
LEGEND 
---------
L = Hold Previous Note
<?> = Pinch Harmonic
decres = Decrescendo (Gradually Play Quieter)
rall = Rallentando (Gradually Slow Down Speed)
mf = mezzo-forte (Moderately Loud)
mp = mezzo-piano (Moderately Quiet)


  mp
     E  E  E  E  E  E  E  E       E  E  E  E  E  E  Q          E  E  E  E  E  E  E  E       E  E  E  E  E  E  Q
E |--------------2--0----------|--------------1-------------|--------------2--0--5--3----|--5-----------1-----2-------|
B |-----------0--------3--0----|--1--------1--------4-------|-----------0----------------|-----------1--------1-------|
G |--------0-------------------|--2-----2--------2--5-------|--------0-------------------|--5-----2--------2--2-------|
D |-----4----------------------|--3--3--------------7-------|-----4----------------------|--3--3----------------------|
A |----------------------------|----------------------------|----------------------------|----------------------------|
E |--0-------------------------|----------------------------|--0-------------------------|----------------------------|
B |----------------------------|----------------------------|----------------------------|----------------------------|
E |--0-------------------------|--L-------------------------|--0-------------------------|--L-------------------------|


  mf
     E  E  E  E  E  E  E  E       E  E  E  E  E  E  Q          E  E  E  E  E  E  E  E       E  E  E  E  E  E  Q
  |--------------2--0----------|--------------1-------------|--------------2--0--5--3----|--5-----------1-----2-------|
  |-----------0--------3--0----|--1--------1--------4-------|-----------0----------------|-----------1--------1-------|
  |--------0-------------------|--2-----2--------2--5-------|--------0-------------------|--5-----2--------2--2-------|
  |-----4----------------------|--3--3--------------7-------|-----4----------------------|--3--3----------------------|
  |--2-------------------------|----------------------------|--2-------------------------|----------------------------|
  |--0-------------------------|----------------------------|--0-------------------------|----------------------------|
  |----------------------------|----------------------------|----------------------------|----------------------------|
  |--0-----------0-------------|--0-------------------------|--0-----------0-------------|--0-------------------------|


   decres        mp
     E  E  E  E  E  E  E  E       E  E  E  E  H                H           S S S S S S S S      S S S S H.
  |--------------2--------2----|--5--------5--7-------------|--L-----------7---5---3---2-----|--0-------------------------|
  |-----------3--------0-------|--------3-------------------|----------------5---3---1---0---|------3---------------------|
  |--------0--------2----------|-----6----------------------|--------------------------------|----2---0-------------------|
  |-----4----------------------|----------------------------|--------------------------------|----------4-----------------|
  |-----2----------------------|----------------------------|--------------------------------|----------------------------|
  |--0-------------------------|----------------------------|--------------------------------|----------------------------|
  |----------------------------|----------------------------|--------------------------------|----------------------------|
  |----------------------------|----------------------------|--------------------------------|----------------------------|


  mf
     S S S S S S H           E       W                            S S S S S S H           E       W
  |--7-5-3---3---0-----------L----|--L-------------------------|-------------------------------|----------------------------|
  |--5-3-1---1--------------------|----------------------------|--0----------------------------|----------------------------|
  |--------------2-----------L----|--L-------------------------|----2-0---0---2-----------L----|--L-------------------------|
  |------2---2--------------------|----------------------------|--2-0---------2-----------L----|--L-------------------------|
  |--3-2-0---0---3-----------L----|--L-------------------------|--3-0-3---3---3-----------L----|--L-------------------------|
  |--------------1-----------L----|--L-------------------------|------3---3---1-----------L----|--L-------------------------|
  |-------------------------------|----------------------------|--1-0--------------------------|----------------------------|
  |-------------------------------|----------------------------|------5---5---1-----------L----|--L-------------------------|


  mp
     E  E  E  E  E  E  E  E       E  E  E  E  E  E  Q          E  E  E  E  E  E  E  E       E  E  E  E  E  E  Q
  |--------------2--0----------|--------------1-------------|--------------2--0--5--3----|--5-----------1-----2-------|
  |-----------0--------3--0----|--1--------1--------4-------|-----------0----------------|-----------1--------1-------|
  |--0-----0-------------------|--2-----2--------2--5-------|--------0-------------------|--5-----2--------2--2-------|
  |--2--4----------------------|--3--3--------------7-------|--2--4----------------------|--3--3----------------------|
  |--2-------------------------|----------------------------|--2-------------------------|----------------------------|
  |--0-------------------------|----------------------------|--0-------------------------|----------------------------|
  |----------------------------|----------------------------|----------------------------|----------------------------|
  |--0-------------------------|--L-------------------------|--0-------------------------|--L-------------------------|


  mf
     E  E  E  E  E  E  E  E       E  E  E  E  E  E  Q          E  E  E  E  E  E  E  E       E  E  E  E  E  E  Q
  |--------------2--0----------|--------------1-------------|--------------2--0--5--3----|--5-----------1-----2-------|
  |-----------0--------3--0----|--1--------1--------4-------|-----------0----------------|-----------1--------1-------|
  |--0-----0-------------------|--2-----2--------2--5-------|--0-----0-------------------|--5-----2--------2--2-------|
  |--2--4----------------------|--3--3--------------7-------|--2--4----------------------|--3--3----------------------|
  |--2-------------------------|----------------------------|--2-------------------------|----------------------------|
  |--0-------------------------|----------------------------|--0-------------------------|----------------------------|
  |----------------------------|----------------------------|----------------------------|----------------------------|
  |--0-----------0-------------|--0-------------------------|--0-----------0-------------|--0-------------------------|


 42bpm  rall
     E  E  E  E  E  Q.            W
  |----------------<2>---------|--L-------------------------||
  |----------<0><3>------------|----------------------------||
  |-------<0>------------------|----------------------------||
  |----<4>---------------------|----------------------------||
  |--2-------------------------|----------------------------||
  |--0-------------------------|----------------------------||
  |----------------------------|----------------------------||
  |--0-------------------------|----------------------------||


Note Durations:
---------------
W = Whole Note / Semibreve - 4 Beats
H.= Dotted Half Note / Dotted Minim - 3 Beats (Half + Quarter Note)
H = Half Note / Minim - 2 Beats
Q.= Dotted Quarter Note / Dotted Crotchet - 1 & 1/2 Beats (Quarter + Eighth Note)
Q = Quarter Note / Crotchet - 1 Beat
E = Eighth Note / Quaver - 1/2 Beat



        
Comments

No comments yet