Gametabs
Home
Tabs
Random

Nothing Can Be Explained

Average rating: 5.000

4 ratings

Composer:

Tabber:

Style:

Instrument:

Created: October 09, 2012 at 12:00 AM

            Title: Nothing Can Be Explained
SubTitle: Bleach: Fade to Black
Artist: Shiro Sagisu
Music: Tabbed by Mitch Jackson
Tempo = 80
T/S = 3/4


   ♪♫•*¨*•.¸¸ CAPO 5 ¸¸.•*¨*•♫♪


Tuning = 3rd string down one semi-tone

This arrangement is based off the Instrumental version on the Bleach movie Fade to Black

Left hand fingering is included in GP file as a guide
Any note durations without any notes under them are rests

---------
LEGEND 
---------
h = Hammer-On
p = Pull=Off
|-3-| = Triplet
cres = Crescendo (Gradually Play Louder)
mf = mezzo-forte (Moderately Loud)
mp = mezzo-piano (Moderately Quiet)
f = forte (Play Loud or Strong)


  mf
     E  E  E  E  S S S S      E  E  E  E  E  E       E  E  E  E  E  E       E  E  E  E  E  E       E  E  E  E  E  E   
E |--0---------------------|----------------------|----------------------|----------------------|----------------------|
B |----------------0-------|----------------------|----------------------|----------------------|----------------------|
F#|-----2--------2-----2---|-----2--------2-------|-----2--------2-------|-----2-----2-----2----|--------0--0-----0----|
D |--------0---------0-----|--------0--------0----|--------0--------0----|--------0-----0-------|-----0--------0-------|
A |--4--------4------------|--4--------4----------|--4--------4----------|--4-----------4-------|--2-----------2-------|
E |------------------------|----------------------|----------------------|----------------------|----------------------|

                                                                     
     E  E  E  E  E  E       E  E  E  E  E  E       E  E  E  E  E  E       E  E  E  E  S S S S      E  E  E  E  S S S S      
  |----------------------|----------------------|----------------------|------------------------|--0---------------------|
  |----------------------|----------------------|----------------------|--2-------------0-------|------------------------|
  |--------0--0-----0----|-----2-----0-----2----|-----2-----0-----2----|-----2--------2---------|-----2--------2---------|
  |-----0--------0-------|--------0-----0-------|--------0-----0-------|--------0---------------|--2-----0-------0-------|
  |--2-----------2-------|--0--------0----------|--0--------0----------|--4--------4------2-4---|--4--------4------4-2---|
  |----------------------|----------------------|----------------------|------------------------|------------------------|

                                                                
     E  E  E  E  S S S S      E  E  E  E  S S S S      E  E  E  E  E  S S      E  E  E  E  S S S S      E  E  E  E  E  E    
  |------------------------|--0---------------------|-----------------------|--0---------------------|----------------------|
  |----------------0-------|------------------------|-----------------0-----|------------------------|----------------------|
  |-----2--------2---------|-----2--------2---------|--------0--0-----------|--------0--0------------|-----2-----0-----2----|
  |--------0---------------|--2-----0-------0-------|-----0--------0--------|--2--0----------0-------|--------0-----0-------|
  |--4--------4------2-4---|--4--------4------4-2---|--4-----------4----4---|--2-----------2---4-0---|--4--------0----------|
  |------------------------|------------------------|--7--------------7-----|------------------------|--5-------------------| 

  
     E  E  E  E  E  E       E  E  E  E  S S S S      E  E  E  E  S S S S      E  E  E  E  S S S S      E  E  E  E  S S S S   
  |----------------------|------------------------|--0---------------------|------------------------|--0---------------------|
  |----------------------|--2-------------0-0-2---|----------------3-2-0---|--2-------------0-0-2---|----------------3-2-0---|
  |-----2-----0-----2----|-----2--------2---------|-----2--------2---------|-----2--------2---------|-----2--------2---------|
  |--------0-----0-------|--------0---------0-----|--------0---------0-----|--------0---------0-----|--------0---------0-----|
  |--0--------0----------|--4--------4------------|--4--------4------------|--4--------4------------|--4--------4------------|
  |----------------------|------------------------|------------------------|------------------------|------------------------|

                                                                
     E  E  E  E  E  S S      E  E  E  E  S S S S      E  E  E  E  E  E       E  E  E  E  E  E       E  E  E  E  S S S S   
  |-----------------------|--0---------------------|----------------------|----------------------|--------4--4------4-----|
  |--2--------------0-2---|----------------3-2-0---|--2-------------------|----------------------|----------------0-------|
  |--------0--0-----0-----|--------0--0------------|-----2-----0-----2----|-----2-----0-----2----|-----2--------2-----2---|
  |-----0--------0--------|-----0--------0---0-----|--------0-----0-------|--------0-----0-------|--------0---------0-----|
  |--2-----------2--------|--2-----------2---------|--0--------0----------|--0--------0----------|--4--------4------------|
  |-----------------------|------------------------|----------------------|----------------------|------------------------|

                                                                     
     S S E  E  E  S S S S      E  E  E  E  E  E       S S E  E  E  S S S S      E  E  E  E  E  E       E  E  E  E  E  E  
  |--4----------------------|--------4--4----------|--4----------------------|--------4--2-----4----|--7-----5--4-----2----|
  |----2------------3-2-0---|--2--------------0----|----2------------3-2-0---|--2--------------0----|----------------------|
  |------2------------------|-----2--------2-------|------2------------------|--------0--0-----0----|--------0--0-----0----|
  |---------0-----0---0-----|--------0--------0----|---------0-----0---0-----|-----0--------0-------|-----0--------0-------|
  |--4---------4------------|--4--------4----------|--4---------4------------|--2-----------2-------|--2-----------2-------|
  |-------------------------|----------------------|-------------------------|----------------------|----------------------|

                                                mp                                            
     E  E  E  E  E  E       E  E  E  E  E  E       E  E  E  E  E  E       E  E  E  E  E  E       E  E  E  E  E  E    
  |--4-------------------|----------------------|----------------------|----------------------|--0--0--0-------------|
  |--2-------------------|----------------------|-----------0--0--0----|--2--2--2--3--3--3----|-----------3--3--3----|
  |-----2-----0-----2----|-----2-----0-----2----|--------0-----0-------|--------0-----0-------|--------0-----0-------|
  |--------0-----0-------|--------0-----0-------|-----0-----------0----|-----0-----------0----|-----0-----------0----|
  |--0--------0----------|--0--------0----------|--2-------------------|--2-------------------|--2-------------------|
  |----------------------|----------------------|----------------------|----------------------|----------------------|

           |-3-| cres         mf
     E  E  S S S E  E  S T T     E  E  E  E  S S S S      E  E  E  E  S S S S      E  E  E  E  S S S S      E  E  E  E  S S S S   
  |---------------------------|------------------------|--0---------------------|------------------------|--0---------------------|
  |--2--2--2h3p2-0------------|--2-------------0-0-2---|----------------3-2-0---|--2-------------0-0-2---|----------------3-2-0---|
  |--------0--------0----0h2--|-----2--------2---------|-----2--------2---------|-----2--------2---------|-----2--------2---------|
  |-----0--------------0------|--------0---------0-----|--------0---------0-----|--------0---------0-----|--------0---------0-----|
  |--2------------------------|--4--------4------------|--4--------4------------|--4--------4------------|--4--------4------------|
  |---------------------------|------------------------|------------------------|------------------------|------------------------|

 
     E  E  E  E  E  S S      E  E  E  E  S S S S      E  E  E  E  E  E       E  E  E  E  E  E       E  E  E  E  S S S S   
  |-----------------------|--0---------------------|----------------------|----------------------|--------4--4------4-----|
  |--2--------------0-2---|----------------3-2-0---|--2-------------------|----------------------|----------------0-------|
  |--------0--0-----0-----|--------0--0------------|-----2-----0-----2----|-----2-----0-----2----|-----2--------2-----2---|
  |-----0--------0--------|-----0--------0---0-----|--------0-----0-------|--------0-----0-------|--------0---------0-----|
  |--2-----------2--------|--2-----------2---------|--0--------0----------|--0--------0----------|--4--------4------------|
  |-----------------------|------------------------|----------------------|----------------------|------------------------|
                                                                

     S S E  E  E  S S S S      E  E  E  E  E  E       S S E  E  E  S S S S      E  E  E  E  E  E       E  E  E  E  E  E  
  |--4----------------------|--------4--4----------|--4----------------------|--------4--2-----4----|--7-----5--4-----2----|
  |----2------------3-2-0---|--2--------------0----|----2------------3-2-0---|--2--------------0----|----------------------|
  |------2------------------|-----2--------2-------|------2------------------|--------0--0-----0----|--------0--0-----0----|
  |---------0-----0---0-----|--------0--------0----|---------0-----0---0-----|-----0--------0-------|-----0--------0-------|
  |--4---------4------------|--4--------4----------|--4---------4------------|--2-----------2-------|--2-----------2-------|
  |-------------------------|----------------------|-------------------------|----------------------|----------------------|

                                                mp                              cres          mf
     E  E  E  E  E  E       E  E  E  E  E  E       E  E  E  E  E  E       E  E  E  E  E  E       E  E  E  E  E  E    
  |--4-------------------|----------------------|--2--0--------9--7----|--5--4----------------|--9--7--5--4--2--0----|
  |--2-------------------|----------------------|--------3--2----------|----------------------|--------------2--0----|
  |-----2-----0-----2----|-----2-----0-----2----|----------------------|--------0-------------|----------------------|
  |--------0-----0-------|--------0-----0-------|----------------------|-----------2--0-------|--6--4--2--0----------|
  |--0--------0----------|--0--------0----------|----------------------|-----------------4----|----------------------|
  |----------------------|----------------------|----------------------|----------------------|----------------------|

                            cres        f
     E  E  E  E  E  E       E  E  E  E  E  E       E  E  E  E  E  E       E  E  E  E  Q          H.                  
  |--------9--7--5--4----|--2--0--------9--7----|--5--4--2--0----------|----------------------|----------------------|
  |--3--2--0-----2--0----|--------3--2--8--6----|--4--3--1-----3--2----|--0-------------------|----------------------|
  |--3--2----------------|--3--2--0-------------|-----------4--2--1----|-----3--2--0----------|----------------------|
  |----------------------|-----------2----------|--------------3--2----|--0--1--0-------------|----------------------|
  |----------------------|----------------------|----------------------|-----3--2--0----------|----------------------|
  |----------------------|----------------------|----------------------|----------------------|----------------------|

  mp 
     E  E  E  E  E  E       E  E  E  E  E  E       E  E  E  E  E  E       E  E  E  E  E  E       E  E  E  E  E  E    
  |----------------------|----------------------|--0--0--0-------------|----------------------|----------------------|
  |-----------0--0--0----|--2--2--2--3--3--3----|-----------3--3--3----|--2--2--2--0----------|--2--------3--3--3----|
  |--------0-----0-------|--------0-----0-------|--------0-----0-------|--------0-----0-------|--------0-----0-------|
  |-----0-----------0----|-----0-----------0----|-----0-----------0----|-----0-----------0----|-----0-----------0----|
  |--2-------------------|--2-------------------|--2-------------------|--2-------------------|--2-------------------|
  |----------------------|----------------------|----------------------|----------------------|----------------------|

                                                         |-3-| cres         mf
     E  E  E  E  E  E       E  E  E  E  E  E       E  E  S S S E  E  S T T     E  E  E  E  S S S S      E  E  E  E  S S S S  
  |--0--0--0--2--2--2----|--0--0--0-------------|---------------------------|------------------------|--0---------------------|
  |-----------0----------|-----------3--3--3----|--2--2--2h3p2-0------------|--0-------------0-0-2---|----------------3-2-0---|
  |--------0-----0-------|--------0-----0-------|--------0--------0----0h2--|-----2--------2---------|-----2--------2---------|
  |-----0-----------0----|-----0-----------0----|-----0--------------0------|--------0---------0-----|--------0---------0-----|
  |--2-------------------|--2-------------------|--2------------------------|--4--------4------------|--4--------4------------|
  |----------------------|----------------------|---------------------------|------------------------|------------------------|

   
     E  E  E  E  S S S S      E  E  E  E  S S S S      E  E  E  E  E  S S      E  E  E  E  S S S S      E  E  E  E  E  E    
  |------------------------|--0---------------------|-----------------------|--0---------------------|----------------------|
  |--2-------------0-0-2---|----------------3-2-0---|--2--------------0-2---|----------------3-2-0---|--2-------------------|
  |-----2--------2---------|-----2--------2---------|--------0--0-----0-----|--------0--0------------|-----2-----0-----2----|
  |--------0---------0-----|--------0---------0-----|-----0--------0--------|-----0--------0---0-----|--------0-----0-------|
  |--4--------4------------|--4--------4------------|--2-----------2--------|--2-----------2---------|--0--------0----------|
  |------------------------|------------------------|-----------------------|------------------------|----------------------|


     E  E  E  E  E  E       E  E  E  E  S S S S      S S E  E  E  S S S S      E  E  E  E  E  E       S S E  E  E  S S S S   
  |----------------------|--------4--4------4-----|--4----------------------|--------4--4----------|--4----------------------|
  |----------------------|----------------0-------|----2------------3-2-0---|--2--------------0----|----2------------3-2-0---|
  |-----2-----0-----2----|-----2--------2-----2---|------2------------------|-----2--------2-------|------2------------------|
  |--------0-----0-------|--------0---------0-----|---------0-----0---0-----|--------0--------0----|---------0-----0---0-----|
  |--0--------0----------|--4--------4------------|--4---------4------------|--4--------4----------|--4---------4------------|
  |----------------------|------------------------|-------------------------|----------------------|-------------------------|

                                                                                                 
     E  E  E  E  E  E       E  E  E  E  E  E       E  E  E  E  E  E       E  E  E  E  E  E       H.                  
  |--------4--2-----4----|--7-----5--4-----2----|--4-------------------|----------------------|----------------------||
  |--2--------------0----|----------------------|--2-------------------|----------------------|--0-------------------||
  |--------0--0-----0----|--------0--0-----0----|-----2-----0-----2----|-----2-----0-----2----|--2-------------------||
  |-----0--------0-------|-----0--------0-------|--------0-----0-------|--------0-----0-------|----------------------||
  |--2-----------2-------|--2-----------2-------|--0--------0----------|--0--------0----------|--4-------------------||
  |----------------------|----------------------|----------------------|----------------------|--4-------------------||


Note Durations:
---------------
H.= Dotted Half Note - 3 Beats (Minum + Crotchet)
Q = Quarter Note / Crotchet - 1 Beat
E = Eighth Note / Quaver - 1/2 Beat
S = Sixteenth Note / Semiquaver - 1/4 Beat
T = Thirty-Second Note / Demisemiquaver - 1/8 Beat

        
Comments

No comments yet