Gametabs
Home
Tabs
Random

Gale

Average rating: 5.000

1 ratings

Composer:

Tabber:

Style:

Instrument:

Created: February 04, 2010 at 12:00 AM

            Gale - Bang's Theme Song  
BlazBlue: Calamity Trigger
Daisuke Ishiwatari
Tabbed by CpxAzn
2/4/2010              

Lead Guitar

     S S S S E  E  S S E  S S E     S S E  S S  E  S S E  E.  S   
E||------------------------------|------9------------------------|
B||------------------------------|------7------10----------------|
G||----------7--9------7--9-9-9--|---------7-7--7------9--7---L\-|
D||----------7--9------7------9--|--7-7------------7-7-9--7---L\-|
A||------------------------------|-------------------------------|
E||--7-7-7-7-------7-7-----------|-------------------------------|


                 PH                                      
  Q    E  Q      S  S E  S S    Q    E  Q    E  S  S E   
-----------------------------|--5----5--7---------------|
---------------<>5s-7--------|--5----5--7----5--5s-7----|
--7----7--9-----------7--6---|-----------------------9--|
--4----4--5----------------7-|--------------------------|
-----------------------------|--------------------------|
-----------------------------|--------------------------|


  S S S S E  E  S S E  S S E     S S E  S S  E  S S E  E.  S   
------------------------------|------9------------------------|
------------------------------|------7------10----------------|
----------7--9------7--9-9-9--|---------7-7--7------9--7---L\-|
----------7--9------7------9--|--7-7------------7-7-9--7---L\-|
------------------------------|-------------------------------|
--7-7-7-7-------7-7-----------|-------------------------------|


                 PH                                      
  Q    E  Q      S  S E  S S    Q    E  Q    E  S  S E   
-----------------------------|--5----5--7---------------|
---------------<>5s-7--------|--5----5--7----5--5s-7----|
--7----7--9-----------7--6---|-----------------------9--|
--4----4--5----------------7-|--------------------------|
-----------------------------|--------------------------|
-----------------------------|--------------------------|


                                         PM    PM          
  S S S S E  E  S S E  S S E      E   E  E  E  E  Q    E   
---------------------------9--|---L-----------------------|
---------------------------7--|---L--10-----9-----7-------|
----------7--9------7--9-9-7--|---L---7--7--7--7--7----9--|
----------7--9------7---------|------------------------9--|
------------------------------|---------------------------|
--7-7-7-7-------7-7-----------|---------------------------|


                 PH                                      
  Q    E  Q      S  S E  S S    Q    E  Q    E  S  S E   
-----------------------------|--5----5--7---------------|
---------------<>5s-7--------|--5----5--7----5--5s-7----|
--7----7--9-----------7--6---|-----------------------9--|
--4----4--5----------------7-|--------------------------|
-----------------------------|--------------------------|
-----------------------------|--------------------------|


  E  E  E  E  E  E  E  E     E.  E.  E.  Q    E.     E  E  E  Q     Q    E   
--------------------------|-----------------------|-------------------------|
--------------------------|-----------------------|--------7-------10----7--|
--7--7-----7-----7-----7--|--7---6---4------------|--4--7-----9-------------|
--7--7-----7-----7-----7--|--7---6---4---2----4---|-------------------------|
--5--5-----5-----5-----5--|--5---4---2---2----4---|-------------------------|
--------------------------|--------------0----2---|-------------------------|


  H        E.  E.  E     E  E  E  Q    Q    E     H.           E  E   
----------------------|------------------------|---------------------|
--L--------7----------|------------------------|---------------------|
---------------9---7--|--6--7--6---------------|------------------4--|
----------------------|-----------7---------7--|--L------------7-----|
----------------------|----------------9-------|---------------------|
----------------------|------------------------|---------------------|


  E  E  E  Q     Q    E     E  E  E  E  E  E  E  E     Q    E.   H        S  
-------------------------|--------------------------|-----------------------|
--------7-------10----8--|--L--8--L--8--8--7--------|-----------------------|
--4--7-----9-------------|--------------------9--7--|--9----7---11--------L-|
-------------------------|--------------------------|-----------------------|
-------------------------|--------------------------|-----------------------|
-------------------------|--------------------------|-----------------------|


  H.           Q       E  E  E  Q     Q    E       H        E.  E.  E   
--------------------|--------------------------|-----------------------|
--------------------|--------7-------10--------|------------7----------|
--L-----------------|--4--7-----9----------9s--|--11------------9---7--|
--------------------|--------------------------|-----------------------|
--------------------|--------------------------|-----------------------|
--------------------|--------------------------|-----------------------|


  E  E  E  Q    Q    E     H.           E  E     E  E  E  Q     Q     E   
------------------------|---------------------|--------------------------|
------------------------|---------------------|--------7-------10----12--|
--6--7--6---------------|------------------4--|--4--7-----9--------------|
-----------7---------7--|--L------------7-----|--------------------------|
----------------9-------|---------------------|--------------------------|
------------------------|---------------------|--------------------------|


  E  E  E  E  E  E  E  E     Q     E.   H        S     H        E  E  E  E   
--------------------------|------------------------|------------------------|
--L--8--L--8--8--7--------|-------10---10--------L-|---L--------------------|
--------------------9--7--|--9---------------------|------------------7--6--|
--------------------------|------------------------|------------------------|
--------------------------|------------------------|------------7--9--------|
--------------------------|------------------------|------------------------|


  Q    Q    Q    E   E     E  E  E  E  Q.     E     E  E  E  E  E  E  E  E   
------------------------|------------------------|--------------------------|
--------------------10--|--L--8--7--8--7---------|--------------------------|
-------7----6-----------|------------------------|-----7--6--7--6-----------|
--9--------------7------|---------------------9--|--L--------------7-----7--|
------------------------|------------------------|--------------------9-----|
------------------------|------------------------|--------------------------|


  W                   H        E  E  E  E     E  Q     H        E   
-------------------|-----------------------|--------------------7--|
-------------------|-----------------------|----------10-----------|
-------------------|--------------6--7-----|-----7-----------------|
--L----------------|--9--------9--------7--|--L--------------------|
-------------------|-----------------------|-----------------------|
-------------------|-----------------------|-----------------------|


  E  E  E  E  E  E  E  E     E  E  E  Q     E   E   E   
--L-----------------------|----------------------------|
--------------------8--7--|--L-------------------------|
-----7--6--7--6--9--------|-----9--9-------12--14--16--|
--------------------------|----------------------------|
--------------------------|----------------------------|
--------------------------|----------------------------|


   H         E   Q     E      E   Q     E   E   Q     E   
--------------------------|--------------------------14--|
----------------15----17--|---L------------15--17--------|
--14--------14------------|------14----14----------------|
--------------------------|------------------------------|
--------------------------|------------------------------|
--------------------------|------------------------------|


  E   E   E   E   E   Q    E      E.   E.   Q     Q      E   
--L--15--14--15--14-----------|--14---15---17----17b----14--|
---------------------17----L--|-----------------------------|
------------------------------|-----------------------------|
------------------------------|-----------------------------|
------------------------------|-----------------------------|
------------------------------|-----------------------------|


   H         E   Q     E      H         E   Q     E   
---L--------14--12----14--|---L--------14--12----14--|
--------------------------|--------------------------|
--------------------------|--------------------------|
--------------------------|--------------------------|
--------------------------|--------------------------|
--------------------------|--------------------------|


  Q     Q     Q      E   E      W                    H         E   Q     E   
--L----15----15b----15--14--|--12----------------|--------------------------|
----------------------------|--------------------|----------------15----17--|
----------------------------|--------------------|--14--------14------------|
----------------------------|--------------------|--------------------------|
----------------------------|--------------------|--------------------------|
----------------------------|--------------------|--------------------------|


   E   Q     E   E   Q     E     E   E   E   E   E   Q    E   
--------------------------14--|--L--15--14--15--14-----------|
---L------------15--17--------|---------------------17----L--|
------14----14----------------|------------------------------|
------------------------------|------------------------------|
------------------------------|------------------------------|
------------------------------|------------------------------|


   E.   E.   Q     Q      E     H         Q    E   E   
--14---15---17----17b----17--|--L--------15----L--14--|
-----------------------------|------------------------|
-----------------------------|------------------------|
-----------------------------|------------------------|
-----------------------------|------------------------|
-----------------------------|------------------------|


  E   E   E   Q     Q     E      Q     Q     Q     Q     
--L--15--14------------------|--------------------------|
-------------17----15----14--|--------------------14----|
-----------------------------|--16----15----16----------|
-----------------------------|--------------------------|
-----------------------------|--------------------------|
-----------------------------|--------------------------|


   Q     Q     E    E   E   E     S S S S E  E  S S E  S S E   
-------------------------------|------------------------------|
--15----------15b--15--14--15--|---------------------------L--|
--------14---------------------|----------7--9------7--9-9-9--|
-------------------------------|----------7--9------7------9--|
-------------------------------|------------------------------|
-------------------------------|--7-7-7-7-------7-7-----------|


                                                 PH           
  S S E  S S  E  S S E  E.  S     Q    E  Q      S  S E  S S  
------9------------------------|-----------------------------|
------7------10----------------|---------------<>5s-7--------|
---------7-7--7------9--7---L\-|--7----7--9-----------7--6---|
--7-7------------7-7-9--7---L\-|--4----4--5----------------7-|
-------------------------------|-----------------------------|
-------------------------------|-----------------------------|


  Q    E  Q    E  S  S E     S S S S E  E  S S E  S S E   
--5----5--7---------------|---------------------------9--|
--5----5--7----5--5s-7----|---------------------------7--|
-----------------------9--|----------7--9------7--9-9-7--|
--------------------------|----------7--9------7---------|
--------------------------|------------------------------|
--------------------------|--7-7-7-7-------7-7-----------|


          PM    PM                           PH           
   E   E  E  E  E  Q    E     Q    E  Q      S  S E  S S  
---L-----------------------|-----------------------------|
---L--10-----9-----7-------|---------------<>5s-7--------|
---L---7--7--7--7--7----9--|--7----7--9-----------7--6---|
------------------------9--|--4----4--5----------------7-|
---------------------------|-----------------------------|
---------------------------|-----------------------------|


  Q    E  Q    E  S  S E     E  E  E  E  E  E  E  E     E.  E.  E.  Q    E.   
--5----5--7---------------|--------------------------|-----------------------|
--5----5--7----5--5s-7----|--------------------------|-----------------------|
-----------------------9--|--7--7-----7-----7-----7--|--7---6---4------------|
--------------------------|--7--7-----7-----7-----7--|--7---6---4---2----4---|
--------------------------|--5--5-----5-----5-----5--|--5---4---2---2----4---|
--------------------------|--------------------------|--------------0----2---|


  E  E  E  Q     Q    E     H        E.  E.  E     E  E  E  Q    Q    E   
-------------------------|----------------------|------------------------|
--------7-------10----7--|--L--------7----------|------------------------|
--4--7-----9-------------|---------------9---7--|--6--7--6---------------|
-------------------------|----------------------|-----------7---------7--|
-------------------------|----------------------|----------------9-------|
-------------------------|----------------------|------------------------|


  H.           E  E     E  E  E  Q     Q    E     E  E  E  E  E  E  E  E   
---------------------|-------------------------|--------------------------|
---------------------|--------7-------10----8--|--L--8--L--8--8--7--------|
------------------4--|--4--7-----9-------------|--------------------9--7--|
--L------------7-----|-------------------------|--------------------------|
---------------------|-------------------------|--------------------------|
---------------------|-------------------------|--------------------------|


  Q    E.   H        S                E  E  E  Q     Q    E    
-----------------------|-----------|--------------------------|
-----------------------|-----------|--------7-------10--------|
--9----7---11--------L-|-----------|--4--7-----9----------9s--|
-----------------------|-----------|--------------------------|
-----------------------|-----------|--------------------------|
-----------------------|-----------|--------------------------|


   H        E.  E.  E     E  E  E  Q    Q    E     H.           E  E   
-----------------------|------------------------|---------------------|
------------7----------|------------------------|---------------------|
--11------------9---7--|--6--7--6---------------|------------------4--|
-----------------------|-----------7---------7--|--L------------7-----|
-----------------------|----------------9-------|---------------------|
-----------------------|------------------------|---------------------|


  E  E  E  Q     Q     E     E  E  E  E  E  E  E  E     Q     E.   H        S  
--------------------------|--------------------------|------------------------|
--------7-------10----12--|--L--8--L--8--8--7--------|-------10---10--------L-|
--4--7-----9--------------|--------------------9--7--|--9---------------------|
--------------------------|--------------------------|------------------------|
--------------------------|--------------------------|------------------------|
--------------------------|--------------------------|------------------------|


  H        E  E  E  E     Q    Q    Q    E   E     E  E  E  E  Q.     E   
-----------------------|------------------------|------------------------|
--L--------------------|--------------------10--|--L--8--7--8--7---------|
-----------------7--6--|-------7----6-----------|------------------------|
-----------------------|--9--------------7------|---------------------9--|
-----------7--9--------|------------------------|------------------------|
-----------------------|------------------------|------------------------|


  E  E  E  E  E  E  E  E     W                   H        E  E  E  E   
--------------------------|-------------------|-----------------------|
--------------------------|-------------------|-----------------------|
-----7--6--7--6-----------|-------------------|--------------6--7-----|
--L--------------7-----7--|--L----------------|--9--------9--------7--|
--------------------9-----|-------------------|-----------------------|
--------------------------|-------------------|-----------------------|


  E  Q     H        E     E  E  E  E  E  E  E  E     E  E  E  Q     E   E   E   
--------------------7--|--L-----------------------|----------------------------|
----------10-----------|--------------------8--7--|--L-------------------------|
-----7-----------------|-----7--6--7--6--9--------|-----9--9-------12--14--16--|
--L--------------------|--------------------------|----------------------------|
-----------------------|--------------------------|----------------------------|
-----------------------|--------------------------|----------------------------|


   H         E   Q     E      E   Q     E   E   Q     E   
--------------------------|--------------------------14--|
----------------15----17--|---L------------15--17--------|
--14--------14------------|------14----14----------------|
--------------------------|------------------------------|
--------------------------|------------------------------|
--------------------------|------------------------------|


  E   E   E   E   E   Q    E      E.   E.   Q     Q      E   
--L--15--14--15--14-----------|--14---15---17----17b----14--|
---------------------17----L--|-----------------------------|
------------------------------|-----------------------------|
------------------------------|-----------------------------|
------------------------------|-----------------------------|
------------------------------|-----------------------------|


   H         E   Q     E      H         E   Q     E   
---L--------14--12----14--|---L--------14--12----14--|
--------------------------|--------------------------|
--------------------------|--------------------------|
--------------------------|--------------------------|
--------------------------|--------------------------|
--------------------------|--------------------------|


  Q     Q     Q      E   E      W                    H         E   Q     E   
--L----15----15b----15--14--|--12----------------|--------------------------|
----------------------------|--------------------|----------------15----17--|
----------------------------|--------------------|--14--------14------------|
----------------------------|--------------------|--------------------------|
----------------------------|--------------------|--------------------------|
----------------------------|--------------------|--------------------------|


   E   Q     E   E   Q     E     E   E   E   E   E   Q    E   
--------------------------14--|--L--15--14--15--14-----------|
---L------------15--17--------|---------------------17----L--|
------14----14----------------|------------------------------|
------------------------------|------------------------------|
------------------------------|------------------------------|
------------------------------|------------------------------|


   E.   E.   Q     Q      E     H         Q    E   E   
--14---15---17----17b----17--|--L--------15----L--14--|
-----------------------------|------------------------|
-----------------------------|------------------------|
-----------------------------|------------------------|
-----------------------------|------------------------|
-----------------------------|------------------------|


  E   E   E   Q     Q     E      Q     Q     Q     Q     
--L--15--14------------------|--------------------------|
-------------17----15----14--|--------------------14----|
-----------------------------|--16----15----16----------|
-----------------------------|--------------------------|
-----------------------------|--------------------------|
-----------------------------|--------------------------|


   Q     Q     E    E   E   E      H         E   E   E   E   
-------------------------------|----------------------------|
--15----------15b--15--14--15--|--12--------12--14--15--14--|
--------14---------------------|----------------------------|
-------------------------------|----------------------------|
-------------------------------|----------------------------|
-------------------------------|----------------------------|


   H         H            H         E.   E.   E      H         E   E   E   E   
--12------------------|--14-------------17---15--|--14--------14--------------|
------------12--------|------------12------------|----------------17--15--17--|
----------------------|--------------------------|----------------------------|
----------------------|--------------------------|----------------------------|
----------------------|--------------------------|----------------------------|
----------------------|--------------------------|----------------------------|


   H         E   E   E   E      H         H            W                 
--14--------14--------------|--14------------------|--------------------|
----------------17--15--17--|------------12--------|--14----------------|
----------------------------|----------------------|--------------------|
----------------------------|----------------------|--------------------|
----------------------------|----------------------|--------------------|
----------------------------|----------------------|--------------------|


   S  S  S  S  S  S  S  S  S  S  S  S  S  S  S  S     Q.       H         E   
-----------14-------14-15----14-15-17-14-15-17-19-|--17b------17--------15--|
--14-15-17----15-17-------17----------------------|-------------------------|
--------------------------------------------------|-------------------------|
--------------------------------------------------|-------------------------|
--------------------------------------------------|-------------------------|
--------------------------------------------------|-------------------------|


                 |---3---|   |---3---|   
   E.   E.   E   E   E   E   E   E   E   
--14---17---15--14--15--14------14------|
----------------------------17------15--|
----------------------------------------|
----------------------------------------|
----------------------------------------|
----------------------------------------|


   |---3---|                                       
   E   E   E   S  S  S  S  S  S  S  S  S  S  S  S  
--------------------------------------------------|
--17--14--17--15-14----15-14-12-------------------|
--------------------16----------14-16-12-12-14-12-|
--------------------------------------------------|
--------------------------------------------------|
--------------------------------------------------|


   S  S  S  S  S  S  S  S  S  S  S  S  S  S  S S     Q.       E   Q    E  E   
-------------------------------------------------|---------------------------|
-------------------------------------------------|--10b------10--10----L--8--|
-----12-14-12----------------------------12------|---------------------------|
--16----------16-14-16-14-12-12-11-12-14----11-L-|---------------------------|
-------------------------------------------------|---------------------------|
-------------------------------------------------|---------------------------|


  E.  E.  E.  E  E.    E     Q     E   E.   E   E.   E   
--------------------------|--7--------10-------12-------|
--7---8---------------10--|-------10-------10-------15--|
----------9---7--9b-------|-----------------------------|
--------------------------|-----------------------------|
--------------------------|-----------------------------|
--------------------------|-----------------------------|


   H         E   Q     E      S  S  S  S  S  S  S  S  S  S  S  S  S  S  S  S  
--------------------------|-----------14-15-14----14-15-17-15-14-14-15-17-15-|
--17b--------L--17\-------|--14-15-17----------17----------------------------|
--------------------------|--------------------------------------------------|
--------------------------|--------------------------------------------------|
--------------------------|--------------------------------------------------|
--------------------------|--------------------------------------------------|


   S  S  S  S  S  S  S  S  S  S  S  S  S  S  S  S  
--15-17-19-17-15-15-17-19-17-15-15-17-19-17-15-15-|
--------------------------------------------------|
--------------------------------------------------|
--------------------------------------------------|
--------------------------------------------------|
--------------------------------------------------|


   S  S  S  S  S  S  S  S  S  S  S  S  E   E      W                  
--15-15-15-15-17-17-17-17-19-19-19-19-17--19--|--19b----------------|
----------------------------------------------|---------------------|
----------------------------------------------|---------------------|
----------------------------------------------|---------------------|
----------------------------------------------|---------------------|
----------------------------------------------|---------------------|


   Q     Q    Q    E   E     E  E  E  E  Q.     E     E  E  E  E  E  E  E  E   
--21b------------------L--|------------------------|--------------------------|
----------------------10--|--L--8--7--8--7---------|--------------------------|
---------7----6-----------|------------------------|-----7--6--7--6-----------|
---9---------------7------|---------------------9--|--L--------------7-----7--|
--------------------------|------------------------|--------------------9-----|
--------------------------|------------------------|--------------------------|


  W                   H        E  E  E  E     E  Q     H        E   
-------------------|-----------------------|--------------------7--|
-------------------|-----------------------|----------10-----------|
-------------------|--------------6--7-----|-----7-----------------|
--L----------------|--9--------9--------7--|--L--------------------|
-------------------|-----------------------|-----------------------|
-------------------|-----------------------|-----------------------|


  E  E  E  E  E  E  E  E     E  E  E  Q     E   E   E   
--L-----------------------|----------------------------|
--------------------8--7--|--L-------------------------|
-----7--6--7--6--9--------|-----9--9-------12--14--16--|
--------------------------|----------------------------|
--------------------------|----------------------------|
--------------------------|----------------------------|


   H         E   Q     E      E   Q     E   E   Q     E   
--------------------------|--------------------------14--|
----------------15----17--|---L------------15--17--------|
--14--------14------------|------14----14----------------|
--------------------------|------------------------------|
--------------------------|------------------------------|
--------------------------|------------------------------|


  E   E   E   E   E   Q    E      E.   E.   Q     Q      E   
--L--15--14--15--14-----------|--14---15---17----17b----14--|
---------------------17----L--|-----------------------------|
------------------------------|-----------------------------|
------------------------------|-----------------------------|
------------------------------|-----------------------------|
------------------------------|-----------------------------|


   H         E   Q     E      H         E   Q     E   
---L--------14--12----14--|---L--------14--12----14--|
--------------------------|--------------------------|
--------------------------|--------------------------|
--------------------------|--------------------------|
--------------------------|--------------------------|
--------------------------|--------------------------|


  Q     Q     Q      E   E      W                    H         E   Q     E   
--L----15----15b----15--14--|--12----------------|--------------------------|
----------------------------|--------------------|----------------15----17--|
----------------------------|--------------------|--14--------14------------|
----------------------------|--------------------|--------------------------|
----------------------------|--------------------|--------------------------|
----------------------------|--------------------|--------------------------|


   E   Q     E   E   Q     E     E   E   E   E   E   Q    E   
--------------------------14--|--L--15--14--15--14-----------|
---L------------15--17--------|---------------------17----L--|
------14----14----------------|------------------------------|
------------------------------|------------------------------|
------------------------------|------------------------------|
------------------------------|------------------------------|


   E.   E.   Q     Q      E     H         Q    E   E   
--14---15---17----17b----17--|--L--------15----L--14--|
-----------------------------|------------------------|
-----------------------------|------------------------|
-----------------------------|------------------------|
-----------------------------|------------------------|
-----------------------------|------------------------|


  E   E   E   Q     Q     E      Q     Q     Q     Q     
--L--15--14------------------|--------------------------|
-------------17----15----14--|--------------------14----|
-----------------------------|--16----15----16----------|
-----------------------------|--------------------------|
-----------------------------|--------------------------|
-----------------------------|--------------------------|


   Q     Q     E    E   E   E     S S S S E  E  S S E  S S E   
-------------------------------|------------------------------|
--15----------15b--15--14--15--|---------------------------L--|
--------14---------------------|----------7--9------7--9-9-9--|
-------------------------------|----------7--9------7------9--|
-------------------------------|------------------------------|
-------------------------------|--7-7-7-7-------7-7-----------|


                                                 PH           
  S S E  S S  E  S S E  E.  S     Q    E  Q      S  S E  S S  
------9------------------------|-----------------------------|
------7------10----------------|---------------<>5s-7--------|
---------7-7--7------9--7---L\-|--7----7--9-----------7--6---|
--7-7------------7-7-9--7---L\-|--4----4--5----------------7-|
-------------------------------|-----------------------------|
-------------------------------|-----------------------------|


  Q    E  Q    E  S  S E     S S S S E  E  S S E  S S E   
--5----5--7---------------|---------------------------9--|
--5----5--7----5--5s-7----|---------------------------7--|
-----------------------9--|----------7--9------7--9-9-7--|
--------------------------|----------7--9------7---------|
--------------------------|------------------------------|
--------------------------|--7-7-7-7-------7-7-----------|


          PM    PM                           PH           
   E   E  E  E  E  Q    E     Q    E  Q      S  S E  S S  
---L-----------------------|-----------------------------|
---L--10-----9-----7-------|---------------<>5s-7--------|
---L---7--7--7--7--7----9--|--7----7--9-----------7--6---|
------------------------9--|--4----4--5----------------7-|
---------------------------|-----------------------------|
---------------------------|-----------------------------|


  Q    E  Q    E  S  S E     E  E  E  E  E  E  E  E     E.  E.  E.  Q    E.    
--5----5--7---------------|--------------------------|-----------------------||
--5----5--7----5--5s-7----|--------------------------|-----------------------||
-----------------------9--|--7--7-----7-----7-----7--|--7---7---7---7----L---||
--------------------------|--7--7-----7-----7-----7--|--7---7---7---7----L---||
--------------------------|--5--5-----5-----5-----5--|--5---5---5---5----L---||
--------------------------|--------------------------|-----------------------||




Duration Legend
---------------
W - whole
H - half
Q - quarter
E - 8th
S - 16th
T - 32nd
X - 64th
. - note dotted
|-n-|  - n-tuplets


Tablature Legend
----------------
L - tied note
x - dead note
g - grace note
(n) - ghost note
> - accentuded note
NH - natural harmonic
AH - artificial harmonic
TH - tapped harmonic
SH - semi harmonic
PH - pitch harmonic
h - hammer on
p - pull off
b - bend
br - bendRelease
pb - preBend
pbr - preBendRelease
brb - bendReleaseBend
\n/ - tremolo bar dip
\n - tremolo bar dive
-/n - tremolo bar Release up
/n\ - tremolo bar inverted dip
/n - tremolo bar return
-\n - tremolo bar Release down
S - shift slide
s - legato slide
/ -  slide into from below or out of upwards
\ -  slide into from above or out of downwards
~ - vibrato
W - wide vibrato
tr - trill
TP - tremolo picking
T - tapping
S - slap
P - pop
< - fade in
^ - brush up
v - brush down

        
Comments

No comments yet