Gametabs
Home
Tabs
Random

Pregame

Average rating: No ratings

Composer:

Tabber:

Style:

Instrument:

Created: March 29, 2008 at 12:00 AM

            Title:     Pregame
Game:      Blades of Steel
Composer:  S.Sakamoto, K.Muraoka, A.Fujio, K.Sada
Year:      1988
Tabber:    goldsac
Notes:

5 strings; Standard tuning (BEADG)

4/4 Time
    
_______________________________________________________________________________


Hits the Pass!   bpm=180



     H        Q.      E      Q    H.              H        Q.     E   
G||----------------------|---------------------|---------------------|
D||----------------------|---------------------|---------------------|
A||------------------10--|--10-----------------|------------------8--|
E||----------------------|---------------------|---------------------|
B||----------------------|---------------------|---------------------|


  Q    Q.      E  E  E      E   E   E   E   E   E   E  E   
------------------------|--------------12--------------9--|
------------------------|----------------------12--12-----|
--8---------------8--9--|--10--10--10------10-------------|
--------------10--------|---------------------------------|
------------------------|---------------------------------|


  E   E   E  E   E  E   E   E      E  E  E   E  E   E   E   E   
-------------9--10--9----------|-------------------------------|
-----10--10------------10------|--10--------10-----10--11--12--|
---------------------------12--|------8--8------8--------------|
-------------------------------|-------------------------------|
-------------------------------|-------------------------------|


   E   E   E  E   E   S  S  E   S  S     E   E  E   Q    E  E  E   
-------------------------------------|----------------------------|
---L--12--12-----12--12-12-12--12-12-|-------------------7--9--7--|
-------------------------------------|--10------8--10-------------|
-------------------------------------|------10--------------------|
-------------------------------------|----------------------------|


  E  E   E  Q    E   E   E     E   E  Q     E  E  E  E   
----------------------------|---------------------------|
--L---------7-----------10--|--9------9--------7--9--7--|
-----7--10-------7--10------|-----10-------10-----------|
----------------------------|---------------------------|
----------------------------|---------------------------|


  E  E   Q    E   E  E   E      E   E  E   Q    E  E  E   
----------------------------|----------------------------|
--L--7----------------------|-------------------7--9--7--|
--------10----8------8--10--|---L------8--10-------------|
-----------------10---------|------10--------------------|
----------------------------|----------------------------|


  E  E   E  Q    E   E   E     E   E  Q    E   E   E  E   
----------------------------|-------------------------9--|
--L---------7-----------10--|--9------9----9--10--12-----|
-----7--10-------7--10------|-----10---------------------|
----------------------------|----------------------------|
----------------------------|----------------------------|


  E  E   Q     E   E  E  E     E  E   Q    E   E  E   E   
--L--9----------------------|----------------------------|
--------12----10--10--9-----|--------10-----------7------|
-------------------------8--|--L--8--------8--10-----10--|
----------------------------|----------------------------|
----------------------------|----------------------------|


   E   E   Q    E   E   E  E     E  E   Q    E   E  E   E   
------------------------------|----------------------------|
----------12----9-------------|--------10-----------7------|
---L--10-----------12--10--8--|--L--8--------8--10-----10--|
------------------------------|----------------------------|
------------------------------|----------------------------|


   E   E  E   E  E  E  E  E     E  E   Q    E   E  E   E   
------12-----10-----9--------|----------------------------|
-----------------------------|--------10-----------7------|
---L------8------7-----5--8--|--L--8--------8--10-----10--|
-----------------------------|----------------------------|
-----------------------------|----------------------------|


   E   E   E   Q     E   E  E      Q.     Q.      Q     
--------------12------------9--|--11------9------------|
----------12--------10--12-----|-----------------12----|
---L--10-----------------------|-----------------------|
-------------------------------|-----------------------|
-------------------------------|-----------------------|


   E   Q.     Q     Q       
--------------------------||
---L--10------9----------*||
-------------------12-----||
-------------------------*||
--------------------------||




Duration Legend
---------------
W - whole
H - half
Q - quarter
E - 8th
S - 16th
T - 32nd
X - 64th
. - note dotted
|-n-|  - n-tuplets


Tablature Legend
----------------
L - tied note
x - dead note
g - grace note
(n) - ghost note
> - accentuded note
NH - natural harmonic
AH - artificial harmonic
TH - tapped harmonic
SH - semi harmonic
PH - pitch harmonic
h - hammer on
p - pull off
b - bend
br - bendRelease
pb - preBend
pbr - preBendRelease
brb - bendReleaseBend
\n/ - tremolo bar dip
\n - tremolo bar dive
-/n - tremolo bar Release up
/n\ - tremolo bar inverted dip
/n - tremolo bar return
-\n - tremolo bar Release down
S - shift slide
s - legato slide
/ -  slide into from below or out of upwards
\ -  slide into from above or out of downwards
~ - vibrato
W - wide vibrato
tr - trill
TP - tremolo picking
T - tapping
S - slap
P - pop
< - fade in
^ - brush up
v - brush down

        
Comments

No comments yet