Gametabs
Home
Tabs
Random

Red Fraction

Average rating: 5.000

1 ratings

Composer:

Tabber:

Style:

Instrument:

Created: October 05, 2012 at 12:00 AM

            Song: Red Fraction
Artist: Mell
Anime: Black Lagoon
Type: OP - Opening (TV size)
TAB by: komarEX (http://www.youtube.com/user/komarEXcam)

Copyright © 2012 by komarEX, All rights reserved


e||-----------| x4
B||-----------|
G||-----------|
D||-----------|
A||-0-1-0-1/5-|
d||-0-1-0-1/5-|


e||------------------| x2
B||------------------|
G||------------------|
D||------------------|
A||-1h2-1h2--1h2-1h2-|
d||-1h2-1h2--1h2-1h2-|


e||------|
B||------|
G||------|
D||------|
A||-1/12-|
d||-1/12-|


e||-------------------------| x3
B||-------------------------|
G||--------------------9--7-|
D||--------------------9--7-|
A||--------------------7--5-|
d||-5-5-5-5-5-5-7-7-7-------|


e||-0-12p0-0-8p0-0-9p0-0-5p0-0-7p0-0-5p0-0-3p0-0-5p0-0-3p0-0-2p0-0-|
B||----------------------------------------------------------------|
G||----------------------------------------------------------------|
D||----------------------------------------------------------------|
A||----------------------------------------------------------------|
d||----------------------------------------------------------------|


e||------------------| x2
B||------------------|
G||------------------|
D||------------------|
A||-1h2-1h2--1h2-1h2-|
d||-1h2-1h2--1h2-1h2-|


e||------|
B||------|
G||------|
D||------|
A||-1/12-|
d||-1/12-|


e||-------------------------| x3
B||-------------------------|
G||--------------------9--7-|
D||--------------------9--7-|
A||--------------------7--5-|
d||-5-5-5-5-5-5-7-7-7-------|


e||-0-12p0-0-8p0-0-9p0-0-5p0-0-7p0-0-5p0-0-3p0-0-5p0-0-3p0-0-2p0-0-|
B||----------------------------------------------------------------|
G||----------------------------------------------------------------|
D||----------------------------------------------------------------|
A||----------------------------------------------------------------|
d||----------------------------------------------------------------|


e||----------------|-----------------|-----------------|-----------|
B||----------------|-----------------|-----------------|-----------|
G||-5--7-----9--7--|--5--7-----9--7--|--5--7-----9--7--|--5--7--9--|
D||-5--7--2--9--7--|--5--7--2--9--7--|--5--7--2--9--7--|--5--7--9--|
A||-3--5--2--7--5--|--3--5--2--7--5--|--3--5--2--7--5--|--3--5--7--|
d||-------2--------|--------2--------|--------2--------|-----------|


e||----|
B||----|
G||----|
D||----|
A||-7\-|
d||-7\-|


e||----------------|-----------------|-----------------|-----------|
B||----------------|-----------------|-----------------|-----------|
G||-5--7-----9--7--|--5--7-----9--7--|--5--7-----9--7--|--5--7--9--|
D||-5--7--2--9--7--|--5--7--2--9--7--|--5--7--2--9--7--|--5--7--9--|
A||-3--5--2--7--5--|--3--5--2--7--5--|--3--5--2--7--5--|--3--5--7--|
d||-------2--------|--------2--------|--------2--------|-----------|


e||-----------| x4
B||-----------|
G||-----------|
D||-----------|
A||-0-1-0-1/5-|
d||-0-1-0-1/5-|


e||------------------|--2--|
B||------------------|--2--|
G||------------------|--2--|
D||------------------|--2--|
A||-1h2-1h2--1h2-1h2-|--2--|
d||-1h2-1h2--1h2-1h2-|--2--|


Copyright © 2012 by komarEX, All rights reserved
        
Comments

No comments yet