Gametabs
Home
Tabs
Random

Will the Circle Be Unbroken?

Average rating: 4.800

5 ratings

Composer:

Tabber:

Style:

Instrument:

Created: April 22, 2012 at 12:00 AM

            Bioshock Infinite - Will the Circle Be Unbroken?

Music composed by Charles H. Gabriel, Lyrics written by Ada R. Habershon

Arranged for Voice and Guitar by Troy Baker and Courtnee Draper

Arranged for Solo Guitar by NorthStar

Gtr I (E A D G B E) - 'Untitled'

  Q=85
 4/4
  Gtr I
   E H..          W          W          +H.     E E
|--------------|-----------|----------|-------------|
|-^0h1---------|-^3--------|-1--------|-(1)---------|
|-^0-----------|-^0--------|-0--------|-(0)-----0h2-|
|-^2-----------|-^0--------|-2--------|-(2)---------|
|-^3-----------|-----------|-3--------|-(3)---------|
|--------------|-^3--------|----------|-------------|


  E E +H     E E   Q  H    E E   Q.   E Q.   E   H.      E E
|------------0---|----0----0---|---------------|-------------|
|-1-1-(1)----1-3-|-1-------1-3-|-1----3-1------|-------------|
|------------0---|---------0---|-2-----------2-|-0-------0h2-|
|-2----------2---|-2-------2-0-|-3------3------|-2-----------|
|-3----------3---|-3-----------|---------------|-3-----------|
|----------------|-------------|-1-------------|---------3---|


  E E +H     E E   E E +H     E E    Q.   E  Q.   E    H.      E E
|------------3S5-|-3-0-(0)------0-|-^3--------------|--------------|
|-1-1-(1)----1---|-1----------1---|-^1----1-^3----1-|-^1-----------|
|------------0---|-2--------------|-^0------^0------|-^0-------0h2-|
|-2----------2---|----------------|---------^0------|-^2-----------|
|-3--------------|-0----------0-2-|-^3--------------|-^3-----------|
|----------------|----------------|---------^3------|--------------|


  E E +H     E E   Q  H    E E   H.      E E   H.      E E
|------------0---|----0----0---|-------------|-------------|
|-1-1-(1)----1-3-|-1-------1-3-|-1-------1---|-------------|
|------------0---|---------0---|-2---------2-|-0-------0h2-|
|-2----------2---|-2-----------|-3-------3---|-2-----------|
|-3----------3---|-3-------3---|-------------|-3-----------|
|----------------|-------------|-1-----------|---------3---|


                                    H.=H
  E E +H     E E   E E +H     E E    H     Q.   E    W
|------------3S5-|-3-0-(0)------0-|-^3------------|-------*|
|-1-1-(1)----1---|-1----------1---|-^1----^3----1-|-^1----*|
|------------0---|-2--------------|-^0----^0------|-^0----*|
|-2----------2---|----------------|-------^0------|-^2----*|
|-3--------------|-0----------0-2-|-^3------------|-^3----*|
|----------------|----------------|-------^3------|-------*|


Duration Legend
---------------
W - whole; H - half; Q - quarter; E - 8th; S - 16th; T - 32nd; X - 64th; a - acciaccatura
+ - note tied to previous; . - note dotted; .. - note double dotted
Uncapitalized letters represent notes that are staccato (1/2 duration)
Irregular groupings are notated above the duration line
Duration letters will always appear directly above the note/fret number it represents the
duration for.  Duration letters with no fret number below them represent rests.  Multi-
bar rests are notated in the form Wxn, where n is the number of bars to rest for.  Low
melody durations appear below the staff

Tablature Legend
----------------
 h   - hammer-on
 p   - pull-off
 b   - bend
 pb  - pre-bend
 r   - bend release (if no number after the r, then release immediately)
 /\  - slide into or out of (from/to "nowhere")
 s   - legato slide
 S   - shift slide
  - natural harmonic
[n]  - artificial harmonic
n(n) - tapped harmonic
 ~   - vibrato
 tr  - trill
 T   - tap
 TP  - trem. picking
 PM  - palm muting
\n/  - tremolo bar dip; n = amount to dip
 \n  - tremolo bar down
 n/  - tremolo bar up
/n\  - tremolo bar inverted dip
 =   - hold bend; also acts as connecting device for hammers/pulls
 <>  - volume swell (louder/softer)
 x   - on rhythm slash represents muted slash
 o   - on rhythm slash represents single note slash

Misc Legend
-----------
 |  - bar
||  - double bar
||o - repeat start
o|| - repeat end
*|  - double bar (ending)
 :  - bar (freetime)
 $  - Segno
 &  - Coda
Tempo markers -  = BPM(8/16=s8/s16), where s8 = swing 8ths, s16 = swing 16ths


***************************************************************************************
* Generated using Power Tab Editor by Brad Larsen - http://powertab.guitarnetwork.org *
***************************************************************************************
        
Comments

@karathrow (April 23, 2012 at 3:43 AM)

E E 3S5-| 1---| 0---|

2---

Nope.


@GabrielBocanegra (March 19, 2021 at 1:28 AM)

Is no one going to comment on how this song is Amazing Grace by John Newton?