Gametabs
Home
Tabs
Random

Make My Day!

Average rating: 5.000

1 ratings

Composer:

Tabber:

Style:

Instrument:

Created: September 04, 2012 at 12:00 AM

            Song: Make My Day!
Artist: Piko [ピコ]
Anime: Binbougami ga! [貧乏神が!]
Type: OP - Opening (TV size)
TAB by: komarEX (http://www.youtube.com/user/komarEXcam)

Copyright © 2012 by komarEX, All rights reserved


First guitar:

e||-6---8--10---8-| x4
B||-6---8--10---8-|
G||-6---8--10--10-|
D||-8--10--12--10-|
A||-8--10--12---8-|
E||-6---8--10-----|


e||-6---8-|
B||-6---8-|
G||-6---8-|
D||-8--10-|
A||-8--10-|
E||-6---8-|


e||----------------------------------------------------------------------------------| x4
B||----------------------------------------------------------------------------------|
G||-10-x-x-10-x-x-10-x-x-9-x-x-9-x-x-9-x-x-12-x-x-12-x-x-12-x-x-10-x-x-10-x-x-10-x-x-|
D||-10-x-x-10-x-x-10-x-x-9-x-x-9-x-x-9-x-x-12-x-x-12-x-x-12-x-x-10-x-x-10-x-x-10-x-x-|
A||--8-x-x--8-x-x--8-x-x-7-x-x-7-x-x-7-x-x-10-x-x-10-x-x-10-x-x--8-x-x--8-x-x--8-x-x-|
E||----------------------------------------------------------------------------------|


e||---------|
B||---------|
G||------10-|
D||---10----|
A||-8-------|
E||---------|


e||-6---8--10---8-| x4
B||-6---8--10---8-|
G||-6---8--10--10-|
D||-8--10--12--10-|
A||-8--10--12---8-|
E||-6---8--10-----|


e||-6---8--5--10--6---8--10---8-|
B||-6---8--5--10--6---8--10---8-|
G||-6---8--5--10--6---8--10--10-|
D||-8--10--7--12--8--10--12--10-|
A||-8--10--7--12--8--10--12---8-|
E||-6---8--5--10--6---8--10-----|


e||-6---8---8--6-|
B||-6---8---8--6-|
G||-6--10---8--6-|
D||-8--10--10--8-|
A||-8---8--10--8-|
E||-6-------8--6-|


Second guitar:

e||-------------| (loop by almost whole song)
B||-------------|
G||----10----12-|
D||-10----10----|
A||-------------|
E||-------------|


e||-10---8---8-| (in the end)
B||-12---8---8-|
G||-12--10---8-|
D||-10--10--10-|
A||------8--10-|
E||----------8-|


Copyright © 2012 by komarEX, All rights reserved
        
Comments

No comments yet