Gametabs
Home
Tabs
Random

Shima no Kodomo Naru

Average rating: 5.000

1 ratings

Composer:

Tabber:

Style:

Instrument:

Created: September 30, 2015 at 12:00 AM

            Shima no Kodomo Naru
From Barakamon
Composer: Kenji Kawai 
Arrangement: Brent Quinn 


Standard Tuning
Tempo = 115
3/4 Time


      Q.     E  E  E     Q    Q    E  E     Q.     E  E  E   
E||-------------------|-------7----5-----|------------------|
B||---7------5--7--5--|--7------------7--|--5------7--3-----|
G||*------------------|------------------|---------------4--|
D||*------------------|--7---------------|--5---------------|
A||---5---------------|------------------|------------------|
E||-------------------|------------------|------------------|


                 |--3--|                                        
  E  E  E  E  E  S  S  S    Q.     E  E  E     Q    Q    E  E   
-------------------------|------------------|-------7----5-----|
-----------3-------------|--7------5--7--5--|--7------------8--|
--2--4--5-----5--4h-5p-4-|------------------|------------------|
--4----------------------|------------------|--7---------------|
-------------------------|--3---------------|------------------|
-------------------------|------------------|------------------|


  Q    Q    Q       E  E  E  E  E  E       Q    Q    Q       H.            
-----------------|-----------------7---||-----------------|--5------------|
--5----8----7----|--5-----------5------||--5----3----5----|--7------------|
-----------------|-----4--5--7--------*||-----------------|--7------------|
--5--------------|--7-----------------*||--5--------------|--0------------|
-----------------|---------------------||-----------------|---------------|
-----------------|---------------------||-----------------|---------------|


       E  E   E  E  Q          E  E   E  E  E  E     E  E  E  E  E  E   
|------------------------|------------------------|--------------------|
|---8g10-----10----------|--8g10-----10-----------|--------------------|
|*-----------------------|---------------------4--|--5--4--5--7--5--4--|
|*-----------------------|-----7------L-----7-----|--5-----------------|
|------5------L----------|------------------------|--------------------|
|------------------------|------------------------|--------------------|


  E  E  Q    Q         E  E  E  E  Q          E  E   E  E  E  E   
------------------|--3g5-----5----------|------------------------|
------------------|---------------------|--8g10-----10-----------|
--5--4------------|---------------------|---------------------4--|
--4-----7---------|---------------------|-----7------L-----7-----|
------------------|----3-----L----------|------------------------|
------------------|---------------------|------------------------|


  E  E  E  E  E  E     E  E  E  E  Q          Q.     E  E  E   
--------------------|--------------------||-------------------|
--------------5--7--|--5-----------------||---7------5--7--5--|
--5--4--5--7--------|-----7--6--4-------*||*------------------|
--5-----------------|--4-----------7----*||*------------------|
--------------------|--------------------||---5---------------|
--------------------|--------------------||-------------------|


                                                       |--3--|  
  Q    Q    E  E     Q.     E  E  E     E  E  E  E  E  S  S  S  
-------7----5-----|------------------|-------------------------|
--7------------7--|--5------7--3-----|-----------3-------------|
------------------|---------------4--|--2--4--5-----5--4h-5p-4-|
--7---------------|--5---------------|--4----------------------|
------------------|------------------|-------------------------|
------------------|------------------|-------------------------|


  Q.     E  E  E     Q    Q    E  E     Q    Q    Q       E  E  E  E  E  E     
------------------|-------7----5-----|-----------------|-----------------7---||
--7------5--7--5--|--7------------8--|--5----8----7----|--5-----------5------||
------------------|------------------|-----------------|-----4--5--7--------*||
------------------|--7---------------|--5--------------|--7-----------------*||
--3---------------|------------------|-----------------|---------------------||
------------------|------------------|-----------------|---------------------||


  Q    Q    Q       H.                   E  E   E  E  Q     
-----------------|--5------------||------------------------|
--5----3----5----|--7------------||---8g10-----10----------|
-----------------|--7------------||*-----------------------|
--5--------------|--0------------||*-----------------------|
-----------------|---------------||------5------L----------|
-----------------|---------------||------------------------|


     E  E   E  E  E  E     E  E  E  E  E  E     E  E  Q    Q     
------------------------|--------------------|------------------|
--8g10-----10-----------|--------------------|------------------|
---------------------4--|--5--4--5--7--5--4--|--5--4------------|
-----7------L-----7-----|--5-----------------|--4-----7---------|
------------------------|--------------------|------------------|
------------------------|--------------------|------------------|


    E  E  E  E  Q          E  E   E  E  E  E     E  E  E  E  E  E   
--3g5-----5----------|------------------------|--------------------|
---------------------|--8g10-----10-----------|--------------5--7--|
---------------------|---------------------4--|--5--4--5--7--------|
---------------------|-----7------L-----7-----|--5-----------------|
----3-----L----------|------------------------|--------------------|
---------------------|------------------------|--------------------|


  E  E  E  E  Q         E  E  E  E  E  E     H.             
--------------------||--------------3--5--|--L------------||
--5-----------------||--------------5--7--|--L------------||
-----7--6--4-------*||--------4--7--5--7--|--L------------||
--4-----------7----*||--5--7-----------0--|--L------------||
--------------------||--------2--5--------|---------------||
--------------------||--3--5--------------|---------------||





        
Comments

No comments yet