Gametabs
Home
Tabs
Random

Pause Screen

Average rating: 4.667

3 ratings

Composer:

Tabber:

Style:

Instrument:

Created: May 29, 2008 at 12:00 AM

            'Pause Screen'


Guitar

E----------------------------------------------------------------
B----------------------------------------------------------------
G-5--------5--------5--------5-----------------------------------
D----5-7-5----5-7-5----4-6-4----4-6-4-5-----7-5-----5-----7-5----
A----------------------------------------7-------7-----7-------7-
E----------------------------------------------------------------

E----------------------------------------------------------------
B----------------------------------------------------------------
G-5--------5--------5--------5-----------------------------------
D----5-7-5----5-7-5----4-6-4----4-6-4-5--5--7-8--7--5--8--5------
A------------------------------------------------------------7---
E----------------------------------------------------------------

E----13--------------9---------------------------------5---------
B----13---------6----9-------------------------6--5-6---------4-5
G----14-------5---6--10--6-5-6-8-5-----7-5---------------5--7----
D-----------7-----------------------7-------7--------------------
A-8------8-------------------------------------------------------
E----------------------------------------------------------------

E----13----------------------4---------5--------5--------------5-
B-6--13--6--5-6-4---------------6--6-8----8--6--------6--8888----
G----14-----------6--6--5-6------------------------5-------------
D----------------------------------------------------------------
A----------------------------------------------------------------
E----------------------------------------------------------------

E-7--5------------5-6--5-------------5---------------------------
B------8----8888---------8--5-----8----8-------------3----3------
G---------7--------------------7----------7--4--3-4----4----4----
D--------------------------------------------------------------5-
A----------------------------------------------------------------
E----------------------------------------------------------------

E-3--------3--------3--------3---------------------------------
A----3-5-3----3-5-3----2-4-2----2-4-2-3--3--5-6--5--3--6--3----
G------------------------------------------------------------4-
D--------------------------------------------------------------
A--------------------------------------------------------------
E--------------------------------------------------------------

Bass

E-----------------------------------------------------
B-----------------------------------------------------
G-----------------------------------------------------
D-----------------------------------------------------
A-3---3-------------6---6-3---3-------0-2-3---3-------
E-------3---3-4---4-------------3---3-----------3---3-

E-----------------------------------------------------
B-----------------------------------------------------
G-----------------------------------------------------
D-----------------------------------------------------
A-0-2-3---3-------------6---6-3---3-------3-3-1---0---
E-----------3---3-4---4-------------3---3-------------

E-----------------------------------------------------
B-----------------------------------------------------
G-----------------------------------------------------
D-----3---3-------------6---6-3---3-------0-2-3---3---
A-----------3---3-4---4-------------3---3-----------3-
E-3---------------------------------------------------

E-----------------------------------------------------
B-----------------------------------------------------
G-----------------------------------------------------
D----0-2-3---3-------------6---6-3---3-------3---3----
A--3-----------3---3-4---4-------------3---3-------3--
E-----------------------------------------------------

E-----------------------------------------------------
B-----------------------------------------------------
G-----------------------------------------------------
D-----5---5-------------8---8-5---5---------4-5---5---
A-3L--------5---5-6---6-------------5---5-7---------5-
E-----------------------------------------------------

E-----------------------------------------------------
B-----------------------------------------------------
G-----------------------------------------------------
D------4-5---5-------------8---8-5---5-------5---5----
A--5-7---------5---5-6---6-------------5---5-------5-5L
E-----------------------------------------------------

This is the melody that plays in the pause menu. Just
keeps on looping.

Composer: Grant Kirkhope
Arrangement: Shaun Lovibond

        
Comments

@Shorty5124 (March 19, 2009 at 5:01 PM)

nice tab