Gametabs
Home
Tabs
Random

Pause Screen

Average rating: 5.000

3 ratings

Composer:

Tabber:

Style:

Instrument:

Created: August 11, 2018 at 12:00 AM

            Title: Banjo-Kazooie Pause Screen
Artist: 
Album: 
Author: Arrangement: Eduardo Barelli


Track 1: Tab by Eduardo Barelli

E|---------------------------------|---------------------------------|---------------------------------|
B|-1-----------------------1-------|-----------------1---------------|---------1-----------------------|
G|---------0---2-------0-----------|-0---2-------0-------------------|---------------------------------|
D|---------------------------------|-------------------------4---6---|-----4---1-------4---6-------4---|
A|-3-------------------3-----------|---------------------------------|-----------------------------6---|
E|-------------------------3-------|-------------3---4---------------|-----4---------------------------|


E|---------------------------------|---------------------------------|---------------------------------|
B|---------------------------------|---------------------------------|---------------------------------|
G|-0-------------------2---0-------|-----------------0---------------|-----2---0-----------------------|
D|-------------2-------------------|-----2-----------------------2---|---------------------2-----------|
A|-3-------------------3-----------|---------0---2---3---------------|-----3-------------------0---2---|
E|-------------------------3-------|-----3---------------------------|---------3-----------3-----------|


E|---------------------------------|---------------------------------|---------------------------------|
B|-1-----------------------1-------|-----------------1---------------|---------1-----------------------|
G|---------0---2-------0-----------|-0---2-------0-------------------|---------------------------------|
D|---------------------------------|-------------------------4---6---|-----4---1-------4---6-------4---|
A|-3-------------------3-----------|---------------------------------|-----------------------------6---|
E|-------------------------3-------|-------------3---4---------------|-----4---------------------------|


E|---------------------------------|---------------------------------|---------------------------------|
B|---------------------------------|---------------------------------|---------------------------------|
G|-0-----------0-------2---3-------|-----2-----------0-----------3---|---------0-----------------------|
D|---------------------------------|---------------------------------|---------------------2-----------|
A|-3-------------------3-----------|-----------------3-------3---1---|---------0-----------------------|
E|-------------------------3-------|-------------3-------------------|---------------------3-----------|


E|-------------13------------------|-------------1---------------13--|---------------------------------|
B|-------------13------------------|-----1-----------2-----------14--|---------2-------1---2-------4---|
G|-------------14------------------|-2---------------------------13--|---------1-----------------------|
D|-3-------------------3---3-------|---------------------------------|-----------------------------6---|
A|-------------------------3-------|-------------3---4---------------|-----4---------------------------|
E|-1-------------------------------|---------------------------------|---------------------------------|


E|---------------------------------|---------------------------------|-----5---------------------------|
B|---------------------3---1-------|-----------------6-------5---6---|---------1-------3---4-------5---|
G|-5-----------2-------------------|-----2---------------------------|---------------------------------|
D|-3-------------------3-----------|---------0---2---3---------------|-----3-------------------0---2---|
A|-------------------------3-------|-----3---------------------------|---------3-----------3-----------|
E|---------------------------------|---------------------------------|---------------------------------|


E|-1-----------13----------1-------|-0---1---------------------------|---------------------4-----------|
B|-------------13------------------|-------------4---2-----------2---|-----1---2-----------------------|
G|-------------14------------------|---------------------------------|---------1-----------------------|
D|-3-------------------3-----------|---------------------------------|-----------------------------6---|
A|-------------------------3-------|-------------3---4---------------|-----4---------------------------|
E|---------------------------------|---------------------------------|---------------------------------|


E|-1-----------1-------3---5-------|-----3-----------1-----------5---|---------1-----------------|
B|---------------------------------|---------------------------------|---------------------1-----|
G|---------------------------------|---------------------------------|---------------------------|
D|-3-------------------3-----------|-----------------3---------------|-----3---------------------|
A|-------------------------3-------|-------------3-------------------|---------3-----------3-----|
E|---------------------------------|---------------------------------|---------------------------|


E|-3---3---3---3-------5---7-------|-5---3-----------3---3---3---3---|-----5---6-------5---3-------0---|
B|---------------------------------|-------------3-------------------|---------------------------------|
G|---------------------------------|---------------------------------|---------------------------------|
D|-5-------------------5-----------|---------------------------------|-----------------------------4---|
A|-------------------------5-------|-------------5---6---------------|-----6---------------------------|
E|---------------------------------|---------------------------------|---------6-----------------------|


E|-------------3-------5---3-------|---------------------------------|---------------------------------|
B|-3-------------------------------|-----3---------------------------|-----3-----------3---------------|
G|---------------------------------|-----------------4-------3---4---|---------4-----------4-------0---|
D|-5-------------------5-----------|-----0---2---4---5---------------|-----5-------------------2---4---|
A|-------------------------5-------|---------------------------------|---------5-----------5-----------|
E|---------------------------------|---------------------------------|---------------------------------|


E|-3-----------------------3-------|-----------------3---------------|---------3-----------------------|
B|---------3---5-------3-----------|-3---5-------3-----------2---4---|-----2-----------2---4-------2---|
G|---------------------------------|---------------------------------|---------------------------------|
D|-5-------------------5-----------|-----------------1---------------|-----1-----------------------4---|
A|-------------------------5-------|-------------5-------------------|---------1-----------------------|
E|---------------------------------|---------------------------------|---------------------------------|


E|---------------------------------|---------------------------------|---------------------------|
B|-3-----------3-------5---6-------|-----5-----------3-----------6---|---------3-----------0-----|
G|---------------------------------|---------------------------------|---------------------------|
D|-5-------------------5-----------|-----------------5---------------|-----5---------------------|
A|-------------------------5-------|-------------5-------------------|---------5-----------5-----|
E|---------------------------------|---------------------------------|---------------------------|

        
Comments

No comments yet