Gametabs
Home
Tabs
Random

Mumbo's Mountain

Average rating: 5.000

1 ratings

Composer:

Tabber:

Style:

Instrument:

Created: October 16, 2011 at 12:00 AM

            Flute
     W                      S S     S S  Q     S S     S S  Q     
E||-------------------||-----------------------------------------|
B||-------------------||---13---15g17---------13---15g17---------|
G||-------------------||*---------------15-----------------15----|
D||-------------------||*----------------------------------------|
A||-------------------||-----------------------------------------|
E||-------------------||-----------------------------------------|


                                                     |--3--|  
   S S     S S  S.T     S T  T  S.T     S T  T  S S  S  S  S  
---------------15---14g15---17-------------------------------|
--13---15g17-------------------15---14g15---17-15------------|
----------------------------------------------------12-14-16-|
-------------------------------------------------------------|
-------------------------------------------------------------|
-------------------------------------------------------------|


   S S     S S  Q     S S     S S  Q     
----------------------------------------|
--13---15g17---------13---15g17---------|
---------------15-----------------15----|
----------------------------------------|
----------------------------------------|
----------------------------------------|


   S.T     S.T     S S  S S  S.T     S S  S E.                              
--15---14g15---16g17---19---20---22g24---20-----|------|----|----|----|----|
------------------------------------------------|------|----|----|----|----|
------------------------------------------------|------|----|----|----|----|
------------------------------------------------|------|----|----|----|----|
------------------------------------------------|------|----|----|----|----|
------------------------------------------------|------|----|----|----|----|


                                  |--3--|  
                 H.           E   S  S  S  
----|----|----|---------------------------|
----|----|----|---------------------------|
----|----|----|------------------12-14-16-|
----|----|----|---------------------------|
----|----|----|---------------------------|
----|----|----|---------------------------|


   S S     S S  Q     S S     S S  Q     
----------------------------------------|
--13---15g17---------13---15g17---------|
---------------15-----------------15----|
----------------------------------------|
----------------------------------------|
----------------------------------------|


                                                     |--3--|  
   S S     S S  S.T     S T  T  S.T     S T  T  S S  S  S  S  
---------------15---14g15---17-------------------------------|
--13---15g17-------------------15---14g15---17-15------------|
----------------------------------------------------12-14-16-|
-------------------------------------------------------------|
-------------------------------------------------------------|
-------------------------------------------------------------|


   S S     S S  Q     S S     S S  Q     
----------------------------------------|
--13---15g17---------13---15g17---------|
---------------15-----------------15----|
----------------------------------------|
----------------------------------------|
----------------------------------------|


   S.T     S.T     S S  S S  S.T     S S  S E.     E  E  E  E  E  E  E  E   
--15---14g15---16g17---19---20---22g24---20-----|-----5-----5-----5-----5--|
------------------------------------------------|-----6-----6-----6-----6--|
------------------------------------------------|--------------------------|
------------------------------------------------|--------------------------|
------------------------------------------------|--------------------------|
------------------------------------------------|--------------------------|


  E   E  E   E  E   E  E   E     E   E  E   E  E   E  E   E   
-----10-----10-----10-----10--|------8------8------8------8--|
-----11-----11-----11-----11--|-----11-----11-----11-----11--|
------------------------------|------------------------------|
------------------------------|------------------------------|
------------------------------|------------------------------|
------------------------------|------------------------------|


  E   E  E   E  E   E  E   E     E  E  E  E  E  E  E  E   
------8------8------8------3--|-----5-----5-----5-----5--|
-----10-----10-----10-----11--|-----6-----6-----6-----6--|
------------------------------|--------------------------|
------------------------------|--------------------------|
------------------------------|--------------------------|
------------------------------|--------------------------|


  E   E  E   E  E   E  E   E     E   E  E   E  E   E  E   E   
-----11-----11-----11-----11--|-----10-----10-----12-----12--|
-----12-----12-----12-----12--|-----12-----12-----13-----13--|
------------------------------|------------------------------|
------------------------------|------------------------------|
------------------------------|------------------------------|
------------------------------|------------------------------|


  E  E  E  E  E  E  E  E      E.  S  E.  S  E.  S  E.  S  
-----5-----5-----5-----5--|--13--------------------------|
-----6-----6-----6-----6--|---------13-------------------|
--------------------------|----------------14------------|
--------------------------|-----------------------15-----|
--------------------------|------------------------------|
--------------------------|------------------------------|


   E  S  S  E   E   Q    E  S  S    E  S S S S S S Q    S S S S  
-----------10--10--10------------|---------6---6---6----3---0---|
--------11------------------8----|-------8----------------------|
--12--------------------------10-|--9---------------------------|
---------------------------------|------------------------------|
---------------------------------|------------------------------|
---------------------------------|------------------------------|


  E  S S S S S S S S S S  S S  S S     E.  S  E.  S  E.  S  E.  S  
--1----5-8---8---8---8---10---12---|--13--------------------------|
-----------------------------------|---------13-------------------|
-----------------------------------|----------------14------------|
-----------------------------------|-----------------------15-----|
-----------------------------------|------------------------------|
-----------------------------------|------------------------------|


   E  S  S  S S  S S  Q    E   S  S     E  S  S  S S  S S  S S  S S  S S  S S  
------------------------------------|------------------------------------12---|
-----------16---16---16-------16-14-|--------13-15---12---13--------13--------|
--------16--------------------------|--16----------------------12-------------|
--16--------------------------------|-----------------------------------------|
------------------------------------|-----------------------------------------|
------------------------------------|-----------------------------------------|


   S S  T T  T T T T T T T T T T S S S S E  E                                 
--13---12---10---8---6---5---3---1---5---1-----|-----|-----|-----|-----|-----|
-----------------------------------------------|-----|-----|-----|-----|-----|
-----------------------------------------------|-----|-----|-----|-----|-----|
-----------------------------------------------|-----|-----|-----|-----|-----|
-----------------------------------------------|-----|-----|-----|-----|-----|
-----------------------------------------------|-----|-----|-----|-----|-----|


-----|-----|-----|-----|-----|-----|-----|-----|-----|
-----|-----|-----|-----|-----|-----|-----|-----|-----|
-----|-----|-----|-----|-----|-----|-----|-----|-----|
-----|-----|-----|-----|-----|-----|-----|-----|-----|
-----|-----|-----|-----|-----|-----|-----|-----|-----|
-----|-----|-----|-----|-----|-----|-----|-----|-----|


  S S S S S S S S S S S S S E.                                                 
--3---3---4-5-6-7-8-------8-----|-------||------|------||-------|------|------|
----------------------8---------|-------||------|------||-------|------|------|
--------------------------------|------*||------|------||*------|------|------|
--------------------------------|------*||------|------||*------|------|------|
--------------------------------|-------||------|------||-------|------|------|
--------------------------------|-------||------|------||-------|------|------|


-------||------|------|------|------|------|------|------|------|------|------|
-------||------|------|------|------|------|------|------|------|------|------|
------*||------|------|------|------|------|------|------|------|------|------|
------*||------|------|------|------|------|------|------|------|------|------|
-------||------|------|------|------|------|------|------|------|------|------|
-------||------|------|------|------|------|------|------|------|------|------|


------|------|------|------|------|------|------|------|------|------|------|
------|------|------|------|------|------|------|------|------|------|------|
------|------|------|------|------|------|------|------|------|------|------|
------|------|------|------|------|------|------|------|------|------|------|
------|------|------|------|------|------|------|------|------|------|------|
------|------|------|------|------|------|------|------|------|------|------|


------|------|------|------|------|------|------|------|------|------|------|
------|------|------|------|------|------|------|------|------|------|------|
------|------|------|------|------|------|------|------|------|------|------|
------|------|------|------|------|------|------|------|------|------|------|
------|------|------|------|------|------|------|------|------|------|------|
------|------|------|------|------|------|------|------|------|------|------|


------|------|------|------|------|------|------|------||
------|------|------|------|------|------|------|------||
------|------|------|------|------|------|------|------||
------|------|------|------|------|------|------|------||
------|------|------|------|------|------|------|------||
------|------|------|------|------|------|------|------||




Banjo
E||-------------------||--------------------|-------------------|
B||-------------------||--------------------|-------------------|
G||-------------------||*-------------------|-------------------|
D||-------------------||*-------------------|-------------------|
A||-------------------||--------------------|-------------------|
E||-------------------||--------------------|-------------------|


-------------------|-------------------|-------------------|-------------------|
-------------------|-------------------|-------------------|-------------------|
-------------------|-------------------|-------------------|-------------------|
-------------------|-------------------|-------------------|-------------------|
-------------------|-------------------|-------------------|-------------------|
-------------------|-------------------|-------------------|-------------------|


-------------------|-------------------|
-------------------|-------------------|
-------------------|-------------------|
-------------------|-------------------|
-------------------|-------------------|
-------------------|-------------------|


                  |-3-|                      
  T S. S S   T S. S S S S S S S   S S   S S  
--------------------------------------------|
--------------------------------------------|
------------------------0---0---2g4---5g4---|
----------------------3---------------------|
-----------3g4----4-6-----------------------|
--4----9------------------------------------|


    S S   S S S S S S S S S S   S S S S  
----------------------------------------|
----------------------------------------|
--2g0-----------------------------------|
--------3g2---2---------------------4---|
------------------3---4---1---2g4-------|
----------------------------------------|


      |-3-|                                
  S S S S S S S   S S   S S   S S S S S S  
------------------------------------------|
------------------------------------------|
------4-3-4-6---4g3---4g2-----------------|
--4-------------------------5g3---3-------|
--------------------------------------3---|
------------------------------------------|


  S S S S   S S S S   S S S S   S S S S    T S. S S S S S S S S   S S S S S S  
----------------------------------------|-------------------------------------|
------------------------------------3---|--3----------------------------------|
--------------------------2---1g2-------|-------4-----------4-----------------|
----------------4---3g4-----------------|-----------5---3-------9g5---3-------|
--5---5---4g5---------------------------|---------------------------------5---|
----------------------------------------|-------------------------------------|


  S H        Q    E  S                                          
-----------------------|-------------------|-------------------|
-----------------------|-------------------|-------------------|
-----------------------|-------------------|-------------------|
-----------------------|-------------------|-------------------|
--3--------------------|-------------------|-------------------|
-----------------------|-------------------|-------------------|


-------------------|-------------------|-------------------|-------------------|
-------------------|-------------------|-------------------|-------------------|
-------------------|-------------------|-------------------|-------------------|
-------------------|-------------------|-------------------|-------------------|
-------------------|-------------------|-------------------|-------------------|
-------------------|-------------------|-------------------|-------------------|


-------------------|-------------------|-------------------|-------------------|
-------------------|-------------------|-------------------|-------------------|
-------------------|-------------------|-------------------|-------------------|
-------------------|-------------------|-------------------|-------------------|
-------------------|-------------------|-------------------|-------------------|
-------------------|-------------------|-------------------|-------------------|


-------------------|-------------------|-------------------|-------------------|
-------------------|-------------------|-------------------|-------------------|
-------------------|-------------------|-------------------|-------------------|
-------------------|-------------------|-------------------|-------------------|
-------------------|-------------------|-------------------|-------------------|
-------------------|-------------------|-------------------|-------------------|


-------------------|-------------------|-------------------|-------------------|
-------------------|-------------------|-------------------|-------------------|
-------------------|-------------------|-------------------|-------------------|
-------------------|-------------------|-------------------|-------------------|
-------------------|-------------------|-------------------|-------------------|
-------------------|-------------------|-------------------|-------------------|


                      E  S S E  E  E  S S E  E     E  S S E  E  E  S S E  E   
-------------------|----------------------------|----------------------------|
-------------------|----------------------------|----------------------------|
-------------------|------------------4-4----4--|------------------3-3----3--|
-------------------|-----6-6----6-----5-5----5--|-----5-5----5-----4-4----4--|
-------------------|-----4-4----4---------------|-----3-3----3---------------|
-------------------|----------------------------|----------------------------|


  E  S S E  E  E  S S E  E     E  S S E  E  E  S S E  E   
----------------------------|----------------------------|
----------------------------|----------------------------|
------------------2-2----2--|----------------------------|
-----4-4----4-----3-3----3--|-----4-4----4-----4-4----4--|
-----6-6----6---------------|-----5-5----5-----5-5----5--|
----------------------------|----------------------------|


  E  S S E  E  E  S S E  E     E  S S E  S E.  S S E  S S  
----------------------------|-----------------------------|
----------------------------|-----------------------------|
----------------------------|-----------------------------|
-----3-3----3-----3-3----3--|-----2-2----------2-2--------|
-----2-2----2-----2-2----2--|-----3-3----4-----3-3----4---|
----------------------------|------------6------------6---|


  E  S S E  S S E  S S E  S S    E  S S E  S E.  S S E  S S  
------------------------------|-----------------------------|
------------------------------|-----------------------------|
------------------------------|-----------------------------|
-----2-2-----------4-4----3-3-|-----2-2----------2-2--------|
-----3-3----5-5----3-3----2-2-|-----3-3----4-----3-3----4---|
------------7-7---------------|------------6------------6---|


  E  S S E  S S E  E  E  E                                                     
----------------------------|-----|-----|-----|-----|-----|-----|------||-----|
----------------------------|-----|-----|-----|-----|-----|-----|------||-----|
----------------------------|-----|-----|-----|-----|-----|-----|-----*||-----|
-----0-0----0---2--0--2--3--|-----|-----|-----|-----|-----|-----|-----*||-----|
-----2-2----2---3--2--3--5--|-----|-----|-----|-----|-----|-----|------||-----|
----------------------------|-----|-----|-----|-----|-----|-----|------||-----|


-----||------|-----|-----|------||-----|-----|-----|-----|-----|-----|-----|
-----||------|-----|-----|------||-----|-----|-----|-----|-----|-----|-----|
-----||*-----|-----|-----|-----*||-----|-----|-----|-----|-----|-----|-----|
-----||*-----|-----|-----|-----*||-----|-----|-----|-----|-----|-----|-----|
-----||------|-----|-----|------||-----|-----|-----|-----|-----|-----|-----|
-----||------|-----|-----|------||-----|-----|-----|-----|-----|-----|-----|


-----|-----|-----|-----|-----|-----|-----|-----|-----|-----|-----|-----|-----|
-----|-----|-----|-----|-----|-----|-----|-----|-----|-----|-----|-----|-----|
-----|-----|-----|-----|-----|-----|-----|-----|-----|-----|-----|-----|-----|
-----|-----|-----|-----|-----|-----|-----|-----|-----|-----|-----|-----|-----|
-----|-----|-----|-----|-----|-----|-----|-----|-----|-----|-----|-----|-----|
-----|-----|-----|-----|-----|-----|-----|-----|-----|-----|-----|-----|-----|


-----|-----|-----|-----|-----|-----|-----|-----|-----|-----|-----|-----|-----|
-----|-----|-----|-----|-----|-----|-----|-----|-----|-----|-----|-----|-----|
-----|-----|-----|-----|-----|-----|-----|-----|-----|-----|-----|-----|-----|
-----|-----|-----|-----|-----|-----|-----|-----|-----|-----|-----|-----|-----|
-----|-----|-----|-----|-----|-----|-----|-----|-----|-----|-----|-----|-----|
-----|-----|-----|-----|-----|-----|-----|-----|-----|-----|-----|-----|-----|


-----|-----|-----|-----|-----|-----|-----||
-----|-----|-----|-----|-----|-----|-----||
-----|-----|-----|-----|-----|-----|-----||
-----|-----|-----|-----|-----|-----|-----||
-----|-----|-----|-----|-----|-----|-----||
-----|-----|-----|-----|-----|-----|-----||




Oboe
     E  S S E  S E.  S S E  S S     E  S S E  S E.  S S E  S S  
E||-----------------------------||-----------------------------|
B||-----------------------------||-----------------------------|
G||-----------------------------||-----------------------------|
D||-----2-2----0-----2-2----0---||-----2-2----------2-2--------|
A||-----3-3----2-----3-3----2---||-----3-3----4-----3-3----4---|
E||-----------------------------||------------6------------6---|
B||-----------------------------||-----------------------------|


  E  S S E  S S E  S S E  S S    E  S S E  S E.  S S E  S S  
------------------------------|-----------------------------|
------------------------------|-----------------------------|
------------------------------|-----------------------------|
-----2-2-----------4-4----3-3-|-----2-2----------2-2--------|
-----3-3----5-5----3-3----2-2-|-----3-3----4-----3-3----4---|
------------7-7---------------|------------6------------6---|
------------------------------|-----------------------------|


  E  S S E  S S E  E  E  E     E  S S E  S E.  S S E  S S  
----------------------------|-----------------------------|
----------------------------|-----------------------------|
----------------------------|-----------------------------|
-----0-0----0---2--0--2--3--|-----2-2----------2-2--------|
-----2-2----2---3--2--3--5--|-----3-3----4-----3-3----4---|
----------------------------|------------6------------6---|
----------------------------|-----------------------------|


  E  S S E  S S E  S S E  S S    E  S S E  S E.  S S E  S S  
------------------------------|-----------------------------|
------------------------------|-----------------------------|
------------------------------|-----------------------------|
-----2-2-----------4-4----3-3-|-----2-2----------2-2--------|
-----3-3----5-5----3-3----2-2-|-----3-3----4-----3-3----4---|
------------7-7---------------|------------6------------6---|
------------------------------|-----------------------------|


  E  S S E  S S E  E  E  E     E  S S E  E  E  S S E  E   
----------------------------|----------------------------|
----------------------------|----------------------------|
----------------------------|------------------4-4----4--|
-----0-0----0---2--0--2--3--|-----6-6----6-----5-5----5--|
-----2-2----2---3--2--3--5--|-----4-4----4---------------|
----------------------------|----------------------------|
----------------------------|----------------------------|


  E  S S E  E  E  S S E  E     E  S S E  E  E  S S E  E   
----------------------------|----------------------------|
----------------------------|----------------------------|
------------------3-3----3--|------------------2-2----2--|
-----5-5----5-----4-4----4--|-----4-4----4-----3-3----3--|
-----3-3----3---------------|-----6-6----6---------------|
----------------------------|----------------------------|
----------------------------|----------------------------|


  E  S S E  E  E  S S E  E     E  S S E  E  E  S S E  E   
----------------------------|----------------------------|
----------------------------|----------------------------|
----------------------------|----------------------------|
-----4-4----4-----4-4----4--|-----3-3----3-----3-3----3--|
-----5-5----5-----5-5----5--|-----2-2----2-----2-2----2--|
----------------------------|----------------------------|
----------------------------|----------------------------|


  E  S S E  S E.  S S E  S S    E  S S E  S S E  S S E  S S  
-----------------------------|------------------------------|
-----------------------------|------------------------------|
-----------------------------|------------------------------|
-----2-2----------2-2--------|-----2-2-----------4-4----3-3-|
-----3-3----4-----3-3----4---|-----3-3----5-5----3-3----2-2-|
------------6------------6---|------------7-7---------------|
-----------------------------|------------------------------|


  E  S S E  S E.  S S E  S S    E  S S E  S S E  E  E  E                     
-----------------------------|----------------------------|-----|-----|-----|
-----------------------------|----------------------------|-----|-----|-----|
-----------------------------|----------------------------|-----|-----|-----|
-----2-2----------2-2--------|-----0-0----0---2--0--2--3--|-----|-----|-----|
-----3-3----4-----3-3----4---|-----2-2----2---3--2--3--5--|-----|-----|-----|
------------6------------6---|----------------------------|-----|-----|-----|
-----------------------------|----------------------------|-----|-----|-----|


        E  E  E  E  E  E  E  E     E  E  E  E  E  E  E  E   
-----|--------------------------|--------------------------|
-----|--------------------------|--------------------------|
-----|--------------------------|--------------------------|
-----|--------------------------|--------------------------|
-----|--------------------------|--------------------------|
-----|--1-----------1-----------|--2-----2-----------2-----|
-----|--------1-----------1-----|--------------0-----------|


  E  E  E  E  E  E  E  E     E  E  E  E  E  E  E  E   
--------------------------|--------------------------|
--------------------------|--------------------------|
--------------------------|--------------------------|
--------------------------|--------------------------|
--------------------------|--------------------------|
--3-----------------0-----|--1-----------1-----------|
--------3-----1-----------|--------1-----------1-----|


  E  S S E  E  E  S S E  E     E  S S E  E  E  S S E  E   
----------------------------|----------------------------|
----------------------------|-----3-3----3-----3-3----3--|
-----2-2----2-----2-2----2--|-----3-3----3-----3-3----3--|
-----3-3----3-----3-3----3--|----------------------------|
----------------------------|----------------------------|
----------------------------|----------------------------|
----------------------------|----------------------------|


  E  S S E  E  E  S S E  E     E  S S E  E  E  S S E  E   
----------------------------|----------------------------|
-----1-1----1-----1-1----1--|-----1-1----1-----1-1-------|
-----3-3----3-----3-3----3--|-----2-2----2-----2-2----3--|
----------------------------|-------------------------5--|
----------------------------|----------------------------|
----------------------------|----------------------------|
----------------------------|----------------------------|


  E  S S E  E  E  S S E  E     E  S S E  E  E  S S E  E   
----------------------------|----------------------------|
----------------------------|-----4-4----4-----4-4----4--|
-----2-2----2-----2-2----2--|-----4-4----4-----4-4----4--|
-----3-3----3-----3-3----3--|----------------------------|
----------------------------|----------------------------|
----------------------------|----------------------------|
----------------------------|----------------------------|


  E  S S E  E  E  S S E  E     E  S S E  E  E  S S E  E                     
------------------0-0----0--|----------------------------|-----|-----|-----|
-----3-3----3-----1-1----1--|----------------------------|-----|-----|-----|
-----4-4----4---------------|-----2-2----2-----2-2----2--|-----|-----|-----|
----------------------------|-----3-3----3-----3-3----3--|-----|-----|-----|
----------------------------|----------------------------|-----|-----|-----|
----------------------------|----------------------------|-----|-----|-----|
----------------------------|----------------------------|-----|-----|-----|


              S S   S S Q    S S   S S Q     
-----|-----|--------------------------------|
-----|-----|--------------------------------|
-----|-----|--------------------------------|
-----|-----|------0g2------------0g2--------|
-----|-----|--3---------1----3---------1----|
-----|-----|--------------------------------|
-----|-----|--------------------------------|


                                         |-3-|  
  S. T   S.T S S   S T T S S   S T T S S S S S  
-----------------------------------------------|
-----------------------------------------------|
-------------0---------2-----------------------|
-------1g2-------4g5-----0---------2-0---------|
--3--------------------------4g5-----------0-2-|
-----------------------------------------3-----|
-----------------------------------------------|


  S S   S S Q    S S   S S Q       S. T   S S   S S S S S. T   S S S E.   
--------------------------------|----------------------------------------|
--------------------------------|----------------------------------------|
--------------------------------|----------------------------------------|
------0g2------------0g2--------|----------------------------0g2---------|
--3---------1----3---------1----|-------------------2---3----------3-----|
--------------------------------|--3----2g3---4g5------------------------|
--------------------------------|----------------------------------------|


                                            E  S S E  S E.  S S E  S S         
------|------|------|------|------|------|------------------------------||----|
------|------|------|------|------|------|------------------------------||----|
------|------|------|------|------|------|------------------------------||----|
------|------|------|------|------|------|-----2-2----0-----2-2----0----||----|
------|------|------|------|------|------|-----3-3----2-----3-3----2----||----|
------|------|------|------|------|------|------------------------------||----|
------|------|------|------|------|------|------------------------------||----|


----||----|----|----|-----||----|----|----|----|----|----|----|----|----|----|
----||----|----|----|-----||----|----|----|----|----|----|----|----|----|----|
----||----|----|----|-----||----|----|----|----|----|----|----|----|----|----|
----||----|----|----|-----||----|----|----|----|----|----|----|----|----|----|
----||----|----|----|-----||----|----|----|----|----|----|----|----|----|----|
----||----|----|----|-----||----|----|----|----|----|----|----|----|----|----|
----||----|----|----|-----||----|----|----|----|----|----|----|----|----|----|


----|----|----|----|----|----|----|----|----|----|----|----|----|----|----|----|
----|----|----|----|----|----|----|----|----|----|----|----|----|----|----|----|
----|----|----|----|----|----|----|----|----|----|----|----|----|----|----|----|
----|----|----|----|----|----|----|----|----|----|----|----|----|----|----|----|
----|----|----|----|----|----|----|----|----|----|----|----|----|----|----|----|
----|----|----|----|----|----|----|----|----|----|----|----|----|----|----|----|
----|----|----|----|----|----|----|----|----|----|----|----|----|----|----|----|


----|----|----|----|----|----|----|----|----|----|----|----|----|----||
----|----|----|----|----|----|----|----|----|----|----|----|----|----||
----|----|----|----|----|----|----|----|----|----|----|----|----|----||
----|----|----|----|----|----|----|----|----|----|----|----|----|----||
----|----|----|----|----|----|----|----|----|----|----|----|----|----||
----|----|----|----|----|----|----|----|----|----|----|----|----|----||
----|----|----|----|----|----|----|----|----|----|----|----|----|----||




Tuba
     E  E  E  E  E  E  E  E       E  E  E  E  E  E  E  E   
G||--------------------------||---------------------------|
D||--------5-----------5-----||*--------4-----------4-----|
A||--3-----------3-----------||---3-----------3-----------|
E||--------------------------||*--------------------------|
B||--------------------------||---------------------------|


  E  E  E  E  E  E  E  E     E  E  E  E  E  E  E  E   
--------------------------|--------------------------|
--------5-----------5-----|--------4-----------4-----|
--3-----------5-----------|--3-----------3-----------|
--------------------------|--------------------------|
--------------------------|--------------------------|


  E  E  E  E  E  E  E  E     E  E  E  E  E  E  E  E   
--0-----0-----------------|--------------------------|
--------------------------|--------4-----------4-----|
--------------3-----3-----|--3-----------3-----------|
-----------------3-----3--|--------------------------|
--------------------------|--------------------------|


  E  E  E  E  E  E  E  E     E  E  E  E  E  E  E  E   
--------------------------|--------------------------|
--------5-----------5-----|--------4-----------4-----|
--3-----------5-----------|--3-----------3-----------|
--------------------------|--------------------------|
--------------------------|--------------------------|


  E  E  E  E  E  E  E  E     E  E  E  E  E  E  E  E   
--0-----0-----------------|--------------------------|
--------------------------|--------6-----5-----------|
--------------3-----3-----|--4-----------------5-----|
-----------------3-----3--|--------------------------|
--------------------------|--------------------------|


  E  E  E  E  E  E  E  E     E  E  E  E  E  E  E  E   
--------------------------|--------------------------|
--------5-----4-----------|--------4-----3-----------|
--3-----------------4-----|--2-----------------3-----|
--------------------------|--------------------------|
--------------------------|--------------------------|


  E  E  E  E  E  E  E  E     E  E  E  E  E  E  E  E   
--------------------------|--------------------------|
--------4-----------4-----|--5-----------5-----------|
--5-----------5-----------|--------5--------------2--|
--------------------------|-----------------3--5-----|
--------------------------|--------------------------|


  E  E  E  E  E  E  E  E     E  E  E  E  E  E  E  E   
--------------------------|--------------------------|
--------4-----------4-----|--------5-----------5-----|
--3-----------3-----------|--3-----------5-----------|
--------------------------|--------------------------|
--------------------------|--------------------------|


  E  E  E  E  E  E  E  E     E  E  E  E  E  E  E  E   
--------------------------|--0-----0-----------------|
--------4-----------4-----|--------------------------|
--3-----------3-----------|--------------3-----3-----|
--------------------------|-----------------3-----3--|
--------------------------|--------------------------|


   E.  S  E.  S  E.  S E.  S     E  S S  E   E   Q    E   S S  
--10-------------------------|--------------------------------|
---------10------------------|--------8-12--12--12------------|
----------------12-----8-----|--10-----------------------10-8-|
-----------------------------|--------------------------------|
-----------------------------|--------------------------------|


  E  S S S S S S Q    S S S S    E  S S  S S  S S  S S  S S  S S S S  
------------------------------|----------------------------------9---|
-------5-8---8---8----5-------|-------7-10---10---10---10---12-------|
--7-----------------------7---|--8-----------------------------------|
------------------------------|--------------------------------------|
------------------------------|--------------------------------------|


   E.  S  E.  S  E.  S E.  S    E  S S S S S S Q    E  S S  
--10-------------------------|---------8---8---8-------8-6-|
---------10------------------|-------9---------------------|
----------------12-----8-----|--9--------------------------|
-----------------------------|-----------------------------|
-----------------------------|-----------------------------|


  E  S  S  S S S S  S S  S S  S S S S  
----------------------------------9---|
--9----10-12---9---10--------10-------|
------------------------10------------|
--------------------------------------|
--------------------------------------|


   S S T T  T T  T T T T  T T  T T S S  S S E  E     E  E  E  E  E  E  E  E   
--10---9------------------------------------------|--------------------------|
-----------12---10---8----------------------------|--3-----------3-----------|
-------------------------12---10---8---12---8-----|--------3-----------3-----|
--------------------------------------------------|--------------------------|
--------------------------------------------------|--------------------------|


  E  E  E  E  E  E  S S S S    E  E  E  E  E  E  E  E   
----------------------------|--------------------------|
--5-----------5---------5---|--------------------------|
--------5-----------5-------|--3-----------3-----------|
----------------------------|--------3-----------3-----|
----------------------------|--------------------------|


  E  E  E  E  S S S S S S S S    E  E  E  E  E  E  E  E   
------------------------------|--------------------------|
--3-----------3---2-----------|--3-----------3-----------|
--------3-------------5---3---|--------3-----------3-----|
------------------------------|--------------------------|
------------------------------|--------------------------|


  E  E  E  E  E  E  E  E     E  E  E  E  E  E  E  E   
--------------------------|--------------------------|
--------4-----------4-----|--5-----------------2-----|
--2-----------2-----------|--------5-----3-----------|
--------------------------|--------------------------|
--------------------------|--------------------------|


  E  E  E  E  E  E  E  E                                                   
--------------------------|-----|-----|-----|-----|-----|-----|-----|-----|
--3-----------3-----------|-----|-----|-----|-----|-----|-----|-----|-----|
--------3-----------3-----|-----|-----|-----|-----|-----|-----|-----|-----|
--------------------------|-----|-----|-----|-----|-----|-----|-----|-----|
--------------------------|-----|-----|-----|-----|-----|-----|-----|-----|


        S S T T T T E  T T T T S S T T T T E  T T T T  
-----|------------------------------------------------|
-----|--------------4----------------------4----------|
-----|--3---5---7------7---5---3---5---7------7---5---|
-----|------------------------------------------------|
-----|------------------------------------------------|


  S S S S S S S S S S S S S S S S  
----------------------------------|
----------5---5---4---4---5---5---|
--3---3---------------------------|
----------------------------------|
----------------------------------|


  S S T T T T E  T T T T S S T T T T E  T T T T  
------------------------------------------------|
--------------4----------------------4----------|
--3---5---7------7---5---3---5---7------7---5---|
------------------------------------------------|
------------------------------------------------|


  S S S S S S S S S S S S S E.     S S S S S S S S S S S S S E.   
--0---0---1-2-3-4-5-------------|--0---0---1-2-3-4-5-------------|
----------------------5---------|----------------------5---------|
--------------------------3-----|--------------------------3-----|
--------------------------------|--------------------------------|
--------------------------------|--------------------------------|


  S S S S S S S S S S S S S E.     E  E  E  E  E  E  E  E                 
--0---0---1-2-3-4-5-------5-----|---------------------------||-----|-----|
----------------------5---------|--------5-----------5-----*||-----|-----|
--------------------------------|--3-----------3------------||-----|-----|
--------------------------------|--------------------------*||-----|-----|
--------------------------------|---------------------------||-----|-----|


    E  S S Q    E  S S Q       E  S S E.  S S S S S S S S S  
|---------------------------|-------------------------------|
|*-----2-----------2--------|-----2---5-----------------5---|
|---3------1----3------1----|--3------------5-4-5-4-5-------|
|*--------------------------|-------------------------------|
|---------------------------|-------------------------------|


  E  S S Q    E  S S Q       E  S S S S S S S S S S E.  S    
--------------------------|--------------------------------||
-----2-----------2--------|--5--3---2-----------2---------*||
--3------1----3------1----|-------------5---3-------3------||
--------------------------|-------------------------------*||
--------------------------|--------------------------------||


  E.  S E.  S S S S S E  E     E.  S E.  S S S S S E  E   
----------------------------|--------0-------------------|
--------6-----5-4-5-4-5-----|--------------4-3-4-3-4-----|
--4-------------------------|--3-------------------------|
----------------------------|----------------------------|
----------------------------|----------------------------|


  E.  S E.  S S S S S E.  S    S S S S E  E  S S S S E  E   
--4-------------------------|------------------------------|
--------4-----3-2-3-2-3-----|----------------4-3-4-3-4-----|
----------------------------|--5-4-5-4-5-------------------|
----------------------------|------------------------------|
----------------------------|------------------------------|


  E.  S E.  S S S S S E  E     E  S S Q    E  S S Q     
----------------------------|--------------------------|
--5-----------5-4-5-4-5-----|-----2-----------2--------|
--------5-------------------|--3------1----3------1----|
----------------------------|--------------------------|
----------------------------|--------------------------|


  E  S S E.  S S S S S S S S S    E  S S Q    E  S S Q     
-------------------------------|--------------------------|
-----2---5-----------------5---|-----2-----------2--------|
--3------------5-4-5-4-5-------|--3------1----3------1----|
-------------------------------|--------------------------|
-------------------------------|--------------------------|


  E  S S S S S S S S S S E.  S    E.  S E.  S E.  S E.  S  
-------------------------------|--------------------------|
--5--3---2-----------2---------|--3-----------------3-----|
-------------5---3-------3-----|--------0-----3-----------|
-------------------------------|--------------------------|
-------------------------------|--------------------------|


  E  S S S S S S Q    Q       E  S S S S S S Q    Q     
---------------------------|---------------------------|
--5------------------------|--2------------------------|
-------5-5---5---5---------|-------3-3---3---3---------|
---------------------------|---------------------------|
---------------------------|---------------------------|


  E  S S S S S S S S S S S S S S    E.  S E.  S E.  S E.  S  
---------------------------------|--------------------------|
--3--------------------------2---|--3-----------------3-----|
-------3-3---3---3---3---5-------|--------0-----3-----------|
---------------------------------|--------------------------|
---------------------------------|--------------------------|


  E  S S S S S S Q    Q       E  E  S S S S E  E  E  E   
---------------------------|----------------------------|
--1------------------------|----------------------5-----|
-------2-2---2---2---------|--2-----2---2---3-----------|
---------------------------|----------------------------|
---------------------------|----------------------------|


  E  E  S S S S Q    Q       E.  S E.  S E.  S E.  S  
--------------------------|--------------------------|
--3-----2---5---3---------|--3-----------------3-----|
--------------------------|--------0-----3-----------|
--------------------------|--------------------------|
--------------------------|--------------------------|


  E  S S S S S S Q    Q       E  S S S S S S Q    Q     
---------------------------|---------------------------|
--5------------------------|--2------------------------|
-------5-5---5---5---------|-------3-3---3---3---------|
---------------------------|---------------------------|
---------------------------|---------------------------|


  E  S S S S S S S S S S S S S S    E.  S E.  S E.  S E.  S  
---------------------------------|--------------------------|
--3--------------------------2---|--3-----------------3-----|
-------3-3---3---3---3---5-------|--------0-----3-----------|
---------------------------------|--------------------------|
---------------------------------|--------------------------|


  E  S S S S S S Q    Q       E  E  S S S S E  E  E  E   
---------------------------|----------------------------|
--1------------------------|----------------------5-----|
-------2-2---2---2---------|--2-----2---2---3-----------|
---------------------------|----------------------------|
---------------------------|----------------------------|


  E  E  S S S S Q    Q       E.  S E.  S S S S S E  E   
--------------------------|----------------------------|
--3-----2---5---3---------|--------6-----5-4-5-4-5-----|
--------------------------|--4-------------------------|
--------------------------|----------------------------|
--------------------------|----------------------------|


  E.  S E.  S S S S S E  E     E.  S E.  S S S S S E.  S  
--------0-------------------|--4-------------------------|
--------------4-3-4-3-4-----|--------4-----3-2-3-2-3-----|
--3-------------------------|----------------------------|
----------------------------|----------------------------|
----------------------------|----------------------------|


  S S S S E  E  S S S S E  E     E.  S E.  S S S S S E  E   
------------------------------|----------------------------|
----------------4-3-4-3-4-----|--5-----------5-4-5-4-5-----|
--5-4-5-4-5-------------------|--------5-------------------|
------------------------------|----------------------------|
------------------------------|----------------------------|


  E  S S Q    E  S S Q       E  S S E.  S S S S S S S S S  
--------------------------|-------------------------------|
-----2-----------2--------|-----2---5-----------------5---|
--3------1----3------1----|--3------------5-4-5-4-5-------|
--------------------------|-------------------------------|
--------------------------|-------------------------------|


  E  S S Q    E  S S Q       E  S S S S S S S S S S E.  S  
--------------------------|-------------------------------|
-----2-----------2--------|--5--3---2-----------2---------|
--3------1----3------1----|-------------5---3-------3-----|
--------------------------|-------------------------------|
--------------------------|-------------------------------|


  E  S S Q    E  S S Q       E  S S E.  S S S S S S S S S  
--------------------------|-------------------------------|
-----2-----------2--------|-----2---5-----------------5---|
--3------1----3------1----|--3------------5-4-5-4-5-------|
--------------------------|-------------------------------|
--------------------------|-------------------------------|


  E  S S Q    E  S S Q       E  S S S S S S S S S S E.  S  
--------------------------|-------------------------------|
-----2-----------2--------|--5--3---2-----------2---------|
--3------1----3------1----|-------------5---3-------3-----|
--------------------------|-------------------------------|
--------------------------|-------------------------------|


  E  S S S S S S S S S S E.  S    E  S S S S S S S S S S E.  S   
-------------------------------|-------------------------------||
--5--3---2-----------2---------|--5--3---2-----------2---------||
-------------5---3-------3-----|-------------5---3-------3-----||
-------------------------------|-------------------------------||
-------------------------------|-------------------------------||

        
Comments

@Jaime Uribe (April 13, 2013 at 12:47 AM)

Thanks for this tab :D