Gametabs
Home
Tabs
Random

The Druid Grove

Average rating: 5.000

8 ratings

Composer:

Tabber:

Style:

Instrument:

Created: October 07, 2012 at 12:00 AM

                                            
                                The Druid Grove                                 
                                Baldur's Gate II
                                Michael Hoenig

90 bpm


     E  E  Q    E  E     E  E  Q    E  E     E  E  Q    E  E   
E||--0----------------|--1----------------|-------------------|
B||-------------------|-------------------|--1----------------|
G||-----2----------2--|-----2----------2--|-----2----------2--|
D||--------2----2-----|--------3----3-----|--------3----3-----|
A||--0----------------|-------------------|-------------------|
E||-------------------|--1----------------|-------------------|


  E  E  Q    E  E     E  E  Q    E  E     E  E  Q    E  E     E  E  Q    Q     
-------------------|--0----------------|--0----------------|--0---------------|
--3----------------|----------------0--|-----0----------0--|-----1-------1----|
-----4----------4--|-----0-------0-----|--------0----0-----|--------0---------|
--------5----5-----|--------2----------|-------------------|-------------2----|
-------------------|-------------------|-------------------|--3---------------|
--3----------------|--0----------------|-------------------|------------------|


  E  E  Q    Q       E  E  Q    Q       E  E  E  E  E  E     E  E  E  E  Q     
------------------|------------------|--------------------|--5-----------5----|
--3---------------|--0---------------|-----5-----------5--|-----5-------------|
-----2------------|-----1------------|--------5-----5-----|--------5----------|
--0-----3---------|--------2---------|--7--------7--------|-----------7-------|
-------------0----|-------------2----|--0-----------------|--0----------------|
------------------|--0---------------|--------------------|-------------------|


  E  E  E  E  Q       E  E  E  E  Q       E  E  Q    E  E     E  E  Q    Q     
--0-----------0----|--3-----------3----|-------------------|------------------|
-----1-------------|-----3-------------|--1----------------|--1---------------|
--------2----------|--------4----------|-----2----------2--|-----2------------|
-----------2-------|-----------5-------|--------3----3-----|--------3----2----|
-------------------|-------------------|-------------------|------------------|
--0----------------|--3----------------|--1----------------|--0---------------|


  E  E  Q    Q       E  E  Q    Q       E  E  E  E  E  E     H.             
------------------|------------------|--------------------|--5------------||
--3---------------|--0---------------|-----5-----------5--|---------------||
--2---------------|-------------1----|--------5-----5-----|---------------||
-----0------------|--------2---------|--7--------7--------|---------------||
--------0---------|-----2------------|--0-----------------|---------------||
-------------1----|--0---------------|--------------------|---------------||
        
Comments

@SirLancelot (October 08, 2012 at 1:03 AM)

This is a cool song, thanks for introducing me to it.


@Ennea (October 08, 2012 at 1:25 AM)

Can't wait for the enhanced edition. You're just adding fuel to the fire!


@diralark (October 08, 2012 at 11:09 AM)

Same thinking than SirLancelot.


@Choogly (October 09, 2012 at 3:08 AM)

Ditto what Ennea said, and I can't wait for the Romance tab. Aaaaaaaa I am excite