Gametabs
Home
Tabs
Random

Shadow Over Baldur's Gate

Average rating: 5.000

7 ratings

Composer:

Tabber:

Style:

Instrument:

Created: July 26, 2010 at 12:00 AM

                                      Shadow Over Baldur's Gate     
                         Baldur's Gate: Dark Alliance                        
                                Jeremy Soule



     H        H           H        H           Q    E  E  Q    Q     
E||--0-----------------|--0-----------------|--0-------1--0---------|
B||--------------------|--------------------|------------------3----|
G||-----------2--------|-----------2--------|-----------------------|
D||--------------------|--------------------|-------2---------------|
A||--0-----------------|--0-----------------|--0---------------0----|
E||--------------------|--------------------|-----------------------|


  E  E  Q    Q    Q       Q    Q    H           Q    E  E  Q    Q     
-------------0---------|---------------------|--0-------1--0---------|
-----1--3--------------|---------------------|------------------3----|
-----------------------|-------2-------------|-----------------------|
--3---------------2----|--L---------0--------|-------2---------------|
-------------0---------|-------0-------------|--0--------------------|
-----------------------|---------------------|------------------1----|


  E  E  Q    Q    E  E     E  E  H.              Q    E  E  Q    Q     
------------------------|---------------------|-----------------------|
-----1--3----0----------|---------------------|----------0--1----0----|
------------------------|-----2--0------------|--2--------------------|
--0------------------2--|--4------------------|-----------------------|
------------------2-----|---------------------|-------3---------------|
-------------0----------|---------------------|--1---------------3----|


  E  E  Q    Q    Q       Q    Q    H           Q    E  E  Q    Q     
-------------0---------|---------------------|-----------------------|
-----1--3--------------|---------------------|--1-------0------------|
------------------0----|--L----2-------------|-------------0----0----|
--0--------------------|---------------------|-----------------------|
-------------3---------|------------3--------|-------3---------------|
-----------------------|-------1-------------|--1---------------0----|


  H        E  E  E  E     E  E  E  E  E  E  E  E     E  E  E  E  E  E  Q     
-----------------------|--------------------------|--------------0----------|
--0-----------------0--|--1--------------0--1-----|-----------1-----1-------|
-----------2-----2-----|-----2--------2--------2--|--------2-----------2----|
--------------2--------|-----------2--------------|-----2-------------------|
-----------0-----------|--------0-----------------|--0-----------------0----|
-----------------------|--------------------------|-------------------------|


  Q    H.              E  E  E  E  E  E  E  E     E  E  E  E  E  E  E  E   
--------------------|--0--------1--0-----------|--------------0-----------|
--------------------|--------------------3-----|--1-----3--------------1--|
--------------------|--------2-----------------|--------------------2-----|
--------------------|-----2-----------2-----3--|-----3-----3-----2--------|
--2----3------------|--0-----------------0-----|--------------0-----------|
--------------------|--------------------------|--------------------------|


  E  E  Q    H           E  E  E  E  E  E  E  E     E  E  E  E  E  E  E  E   
----------------------|--0--------1--0-----------|--------------------------|
----------------------|--------------------3-----|--1-----3-----0-----------|
--2-----2-------------|--------2-----------------|--------------------------|
-----2-------0--------|-----2-----------2--------|--------------------2-----|
--------0-------------|--0--------------------3--|-----3-----3-----2-----2--|
----------------------|--------------------1-----|--------------0-----------|


  E  E  H        Q       E  E  E  E  E  E  E  E     E  E  Q    E  E  E  E   
----------------------|--------------------------|-------------0-----------|
----------------------|-----------0--1-----0-----|-----1--3-------------1--|
--------1-------------|--2-----------------------|-------------------0-----|
--4-------------------|--------3-----------------|--0-------------2--------|
-----2-----------2----|-----3-----------3-----2--|-------------3-----------|
----------------------|--1-----------------3-----|-------------------------|


  E  E  E  E  E  E  E  E     E  E  E  E  Q    E  E     E  E  Q    E  E  E  E   
--------------------------|-------------------------|-------------------------|
--------------------------|--1--------0-------------|--------0----------1-----|
--0-----2-----------------|--------------0----0-----|-------------2--------2--|
-----2--------3-----3-----|--------3----------------|--2-------------2--------|
-----------3-----3-----3--|-----3----------------2--|-----2-------0-----------|
--------1-----------------|--1----------------3-----|-------------------------|


        ^              
  E  E  H.             
--0-----5------------||
-----1--5------------||
--------5------------||
---------------------||
--------0------------||
---------------------||




Duration Legend
---------------
W - whole
H - half
Q - quarter
E - 8th
S - 16th
T - 32nd
X - 64th
. - note dotted
|-n-|  - n-tuplets


Tablature Legend
----------------
L - tied note
x - dead note
g - grace note
(n) - ghost note
> - accentuded note
NH - natural harmonic
AH - artificial harmonic
TH - tapped harmonic
SH - semi harmonic
PH - pitch harmonic
h - hammer on
p - pull off
b - bend
br - bendRelease
pb - preBend
pbr - preBendRelease
brb - bendReleaseBend
\n/ - tremolo bar dip
\n - tremolo bar dive
-/n - tremolo bar Release up
/n\ - tremolo bar inverted dip
/n - tremolo bar return
-\n - tremolo bar Release down
S - shift slide
s - legato slide
/ -  slide into from below or out of upwards
\ -  slide into from above or out of downwards
~ - vibrato
W - wide vibrato
tr - trill
TP - tremolo picking
T - tapping
S - slap
P - pop
< - fade in
^ - brush up
v - brush down

        
Comments

@Ranulf (August 17, 2010 at 9:48 PM)

Awesome arrangement


@lordsartek (May 06, 2011 at 6:45 AM)

very good and enjoyable to play thank you!


@pokemonmaster1239 (June 26, 2011 at 7:07 PM)

Excellent! arrangement i rly enjoyed this one keep up the good work! ^__^