Gametabs
Home
Tabs
Random

Sugar Sweet Nightmare

Average rating: 3.667

3 ratings

Composer:

Tabber:

Style:

Instrument:

Created: October 29, 2013 at 12:00 AM

            Sugar Sweet Nightmare
Bakemonogatari
Satoru Kosaki, Yui Horie
corntastic
25 10 2013


e-------------------------------------------------------------------------
B---------------------------------------9---------9-----------------------
G------8--9--9--8-----------8--9----11-----9--11-------11--9--------------
D--11--------------11----11-----------------------------------------------
A-------------------------------------------------------------------------
E-------------------------------------------------------------------------

e-------------------------------------------------------9-----------------
B--9--10--12.-10.-9.-10--9-----------9------------9-12--------------------
G---------------------------11--9-------11----11--------------------------
D-------------------------------------------------------------------------
A-------------------------------------------------------------------------
E-------------------------------------------------------------------------
Intro: only play once
______________________________________________________________________________________


e-------------------------------------------------------------------------
B--------------------------------------------------10--9------------------
G----------------11--9------9------------------11---------9---------------
D--9--9--11--12---------12-------9--9--11--12-----------------------------
A-------------------------------------------------------------------------
E-------------------------------------------------------------------------

e-------------------------------------------------------------------------
B--------------------------------10--9--10--9-----------------------------
G----------------11--9------9--------------------9--11--------------------
D--9--9--11--12---------12------------------------------------------------
A-------------------------------------------------------------------------
E-------------------------------------------------------------------------
______________________________________________________________________________________ x 2


e-------------------------------------------------------------------------
B-------------------------------------------10----10----13--11--10--------
G---------9--10----9--10--12--10----10--12--------------------------------
D--12-12------------------------------------------------------------------
A-------------------------------------------------------------------------
E-------------------------------------------------------------------------

e---------------------------------------------------9---------------------
B-----------------------9------------9--11----11-------12--11--9----------
G--8--10--11----10--11-----11----11---------------------------------------
D-------------------------------------------------------------------------
A-------------------------------------------------------------------------
E-------------------------------------------------------------------------

______________________________________________________________________________________


e-------------------------------------------------------------------------
B--------------------------------------9---------9------------------------
G------8--9----8-----------8--9----11-----9--11-------11--9---------------
D--11-------------11----11------------------------------------------------
A-------------------------------------------------------------------------
E-------------------------------------------------------------------------

e-------------------------------------------------------------------------
B--9--10--12--10--9--10--9-----------9----------------10----9----9--------
G---------------------------11--9-------11--9--8--11----------11----------
D-------------------------------------------------------------------------
A-------------------------------------------------------------------------
E-------------------------------------------------------------------------

e-------------------------------------------------------------------------
B--------------------------------------9---------9------------------------
G------8--9----8-----------8--9----11-----9--11-------11--9---------------
D--11-------------11----11------------------------------------------------
A-------------------------------------------------------------------------
E-------------------------------------------------------------------------

e-------------------------------------------------------9-----------------
B--9--10--12--10--9--10--9-----------9------------9-12--------------------
G---------------------------11--9-------11----11--------------------------
D-------------------------------------------------------------------------
A-------------------------------------------------------------------------
E-------------------------------------------------------------------------

repeat almost everything!

______________________________________________________________________________________



e-------------------------------------------------------------------------
B--12-12-12--9-----10-----------10--------10-10-10------------------------
G---------------9------11----9------11--------------12------12----9-------
D-------------------------------------------------------12----------------
A-------------------------------------------------------------------------
E-------------------------------------------------------------------------

e-------------------------------------------------------------------------
B-------------10------13g12-----------------------------------------------
G--9--12--11------12------------------------------------------------------
D-------------------------------------------------------------------------
A-------------------------------------------------------------------------
E-------------------------------------------------------------------------

______________________________________________________________________________________



e-------------------------------------------------------------------------
B--------------------------------------9---------9------------------------
G------8--9----8-----------8--9----11-----9--11-------11--9---------------
D--11-------------11----11------------------------------------------------
A-------------------------------------------------------------------------
E-------------------------------------------------------------------------

e-------------------------------------------------------------------------
B--9--10--12--10--9--10--9-----------9----------------10----9----9--------
G---------------------------11--9-------11--9--8--11----------11----------
D-------------------------------------------------------------------------
A-------------------------------------------------------------------------
E-------------------------------------------------------------------------

e-------------------------------------------------------------------------
B--------------------------------------9---------9------------------------
G------8--9----8-----------8--9----11-----9--11-------11--9---------------
D--11-------------11----11------------------------------------------------
A-------------------------------------------------------------------------
E-------------------------------------------------------------------------

e-------------------------------------------------------9-----------------
B--9--10--12--10--9--10--9-----------9------------9-12--------------------
G---------------------------11--9-------11----11--------------------------
D-------------------------------------------------------------------------
A-------------------------------------------------------------------------
E-------------------------------------------------------------------------

______________________________________________________________________________________


e-----------------------------------------7--9--9----7---------------------------
B--9--11--11----9--7----7--7------7--7------------------11----11--11--9--11--11--
G-----------------------------10-------------------------------------------------
D--------------------------------------------------------------------------------
A--------------------------------------------------------------------------------
E-------------------------------------------------------------------------------- x2

e-------------------------------------------------------------------------
B--11-11--11-11--11-11--11-11-10g11---------------------------------------
G-------------------------------------------------------------------------
D-------------------------------------------------------------------------
A-------------------------------------------------------------------------
E-------------------------------------------------------------------------
        
Comments

No comments yet