Gametabs
Home
Tabs
Random

Shinsou no Reijou

Average rating: 5.000

5 ratings

Composer:

Tabber:

Style:

Instrument:

Created: August 07, 2017 at 12:00 AM

                                                               深窓の令嬢                                                      
                                          (A Girl in a Secluded Room)                                                       
                                    ~ from anime "化物語"(Bakemonogatari) ~

Music by Satoru Kousaki ( 神前 暁 )
arranged by to*morning


2/4
Q = 80


 (Standard Tuning, EADGBE)
                                                           1.___________

      Q    Q       Q     Q        Q    Q       Q     Q        Q    Q       Q    Q     
E||--------4----|--------0-----|-------4----|--------0-----|-------4----|-------0----|
B||--------5----|--------4-----|-------5----|--------4-----|-------5----|-------2----|
G||*-------4----|--------1-----|-------4----|--------1-----|-------4----|-------4----|
D||*--7---------|-------(2)----|--7---------|-------(2)----|--7---------|-------2----|
A||-------------|--2-----------|------------|--2-----------|------------|--0---------|
E||-------------|--------------|------------|--------------|------------|------------|


                             2.___________

  Q     Q        Q    Q         Q    Q       Q    Q       Q    Q       Q    Q       Q        Q      
--------0-----|-------------||-------4----|-------4----|-------4----|-------7----|--4----|--(4)----|
--------4-----|-------4-----||-------5----|-------2----|-------7----|-------7----|--5----|---4-----|
--------1-----|-------1----*||-------4----|-------4----|-------8----|------------|--4----|---4-----|
-------(2)----|-------4----*||--7---------|------------|------------|-------9----|--7----|---7-----|
--2-----------|--2----------||------------|--0---------|------------|------------|-------|---------|
--------------|-------------||------------|------------|--7---------|--7---------|-------|---------|


  Q       Q       Q       Q        Q        Q    Q       Q       Q       Q       Q       Q     
--4----|--2----|-------|-------|--(2)----|--7---------|-------|--4----|-------|-------|-------|
--5----|--5----|-------|--4----|---4-----|--7---------|--0----|--5----|--0----|-------|--0----|
--4----|--2----|--1----|--1----|---4-----|------------|--1----|--4----|--1----|--4----|--1----|
--7----|-------|-------|-------|---------|-------6----|--2----|--7----|--2----|--4----|-------|
-------|-------|--2----|--2----|---2-----|------------|--0----|-------|--0----|--4----|--2----|
-------|-------|-------|-------|---------|--7---------|-------|-------|-------|--5----|-------|


  Q       Q        Q         E  E  E  E  E  E  E  E     E  E  E  E  E  E  E  E   
--4----|--7----|--11----||---------4--------4--------|--4--------4--------7--4--|
--4----|--4----|---9----||------2--------2--------2--|--------2--------2--------|
--4----|--4----|--------||*--4--------4--------4-----|-----4--------4-----------|
-------|-------|--------||*--------2-----------------|--------4-----------------|
-------|-------|--------||---0-----------------------|--2-----------------------|
-------|-------|---7----||---------------------------|--------------------------|


                                                     1._________________________

  E  E  E  E  E  E  E  E     E  E  E  E  E  E  E  E     E  E  E  E  E  E  E  E   
--------4--------4--------|--4--------4--------9--4--|--------4--------4--------|
-----2--------2--------2--|--------2--------2--------|-----2--------2--------2--|
--4--------4--------4-----|-----4--------4-----------|--4--------4--------4-----|
--------2-----------------|--------4-----------------|--------2-----------------|
--0-----------------------|--2-----------------------|--0-----------------------|
--------------------------|--------------------------|--------------------------|


  E  E  E  E  E  E  E  E     E  E  E  E  E  E  E  E     E  E  E  E  E  E  E  E     
--4--------4--------7--4--|--------4--------4--------|--4--------2--------7--4---||
--------2--------2--------|-----2--------2--------2--|--------2--------2---------||
-----4--------4-----------|--4--------4--------4-----|-----4--------4-----------*||
--------2-----------------|--------4-----------------|--------4-----------------*||
--0-----------------------|--2-----------------------|--2------------------------||
--------------------------|--------------------------|---------------------------||


2.________________________

  E  E  E  E  E  E  E  E     E  E  E  E  E  E  E  E     E  E  E  E  E  E  E  E   
--------4--------4--------|--4--------4--------7--4--|--------4--------4--------|
-----2--------2--------2--|--------2--------2--------|-----2--------2--------2--|
--4--------4--------4-----|-----4--------4-----------|--4--------4--------4-----|
--------2-----------------|--------2-----------------|--------4-----------------|
--0-----------------------|--0-----------------------|--2-----------------------|
--------------------------|--------------------------|--------------------------|


                             <                  
  E  E  E  E  E  E  E  E     W                  
--4--------2-----2--7--4--|--4----------------||
--------2-----------------|--5----------------||
-----4--------4-----------|--6----------------||
--------4-----------------|-------------------||
--2-----------------------|--0----------------||
--------------------------|-------------------||  fine...


        
Comments

No comments yet