Gametabs
Home
Tabs
Random

Shinjitsu Karaha Hodotooi Sonzai

Average rating: No ratings

Composer:

Tabber:

Style:

Instrument:

Created: November 29, 2020 at 12:00 AM

            e|-----------------5-----|----------------------|
B|-----7---5---7---------|-----------------7----|
G|-----------------------|-----6---4---6--------|
D|---7---7---7-----------|---0---0---0----------|x7
A|-----------------------|----------------------|
E|-----------------------|----------------------|
 
[Verse]
                       x2
e|-----------------5-----|----------------------|
B|-----7---5---7---------|-----------------7----|
G|-----------------------|-----6---4---6--------|
D|---7---7---7-----------|---0---0---0----------|
A|-----------------------|----------------------|
E|-----------------------|----------------------|
 
e|-----------------------|
B|---------7-------------|
G|---------6-------------|
D|---------0-------------|
A|-----------------------|
E|-----------------------|
 
[Chorus]
                      x2                     x2
e|-----------------5-----|----------------------|
B|-----7---5---7---------|-----------------7----|
G|-----------------------|-----6---4---6--------|
D|---7---7---7-----------|---0---0---0----------|x4
A|-----------------------|----------------------|
E|-----------------------|----------------------| 
 
[Verse]
                       x2
e|-----------------5-----|----------------------|
B|-----7---5---7---------|-----------------7----|
G|-----------------------|-----6---4---6--------|
D|---7---7---7-----------|---0---0---0----------|
A|-----------------------|----------------------|
E|-----------------------|----------------------|
 
e|----------------------|
B|----------------------|
G|-----6---4---6--------|
D|---0---0---0----------|
A|----------------------|
E|----------------------|
 
[Chorus]
                      x2                     x2
e|-----------------5-----|----------------------|
B|-----7---5---7---------|-----------------7----|
G|-----------------------|-----6---4---6--------|
D|---7---7---7-----------|---0---0---0----------|x6
A|-----------------------|----------------------|
E|-----------------------|----------------------|
 
e|---------5-------------|
B|---------7-------------|
G|-----------------------|
D|---------7-------------|
A|-----------------------|
E|-----------------------|
************************************
        
Comments

No comments yet