Gametabs
Home
Tabs
Random

Senjougahara-senpai

Average rating: 5.000

7 ratings

Composer:

Tabber:

Style:

Instrument:

Created: September 22, 2015 at 12:00 AM

            "Senjougahara-senpai"
from Bakemonogatari
music by MONACA (Satoru Kosaki)
tab by MechaKrauser

Standard tuning, capo on 4
2/4 time, 92bpm

*Thmb = Fret bass note with thumb over top of fretboard

                                                              *Thmb                    
     ^                          ^                             ^                        
     H           E  E  E  E     E  E  E  E     E  E  E  E     H           E  E  E  E   
E||-----------|--0--0--0--0--|--------------|--------------|-----------|-----------1--|
B||--1--------|--------------|-----3--L--1--|--L--0--L--1--|-----------|--1--1--1-----|
G||-----------|--------------|--0-----------|--------------|--0--------|-----------2--|
D||--2--------|--------------|--0-----------|--------------|--3--------|-----------3--|
A||--3--------|--------------|--------------|--------------|-----------|--------------|
E||-----------|--------------|--3-----------|--------------|--1--------|--------------|


                                 ^                          ^                          
  E  E  E  E     E  E  E   E     H           E  E  E  E     E  E  E  E     E  E  Q     
--L--0--------|---------------|-----------|--0--0--0--0--|--------------|-------------|
--------1--1--|--L--1--3p--1--|-----------|--------------|-----3--L--1--|--L--0--L----|
--L-----------|--------0------|-----------|--------------|--0-----------|-------------|
--L-----------|--------0------|--2--------|--------------|--0-----------|-------------|
--------------|---------------|--3--------|--------------|--------------|-------------|
--------------|--------3------|-----------|--------------|--3-----------|-------------|


          *Thmb                                                                          
  ^                                                ^       ^                          
  Q    E  E     Q    E  E     E  E  E  E     E  E  Q       E  E  Q       E  E  E  E   
-------------|----------1--|--L--0-----1--|--L--0-------|-------------|--0--0--0--0--|
--0----1-----|-------------|--------1-----|--------1----|--1----------|--------------|
--0-------2--|--L----L-----|--------------|-------------|-------------|--------------|
--3-------3--|--L----L-----|--------------|--------0----|--2----------|--------------|
-------------|-------------|--------------|-------------|--3-----3----|--------------|
----------1--|--L----L-----|--------------|--------3----|-----3-------|--------------|


                               *Thmb                                        
           ^                   ^        ^                            ^   
  E  E  E  E     E  E  Q       E  E  E  E     Q    E  E     E  E  E  E   
--------------|-------------|--------------|----------1--|-----0--------|
-----3-----1--|--L--0--L----|--0-----1--1--|--L----L-----|--------1--1--|
-----------0--|-------------|--2--------0--|--L----L-----|-----------0--|
--------0-----|-------------|--3--------3--|--L----L-----|--------------|
-----2--------|-------------|-----3--------|-------------|--------------|
--3-----------|-------------|--1-----------|-------------|--1-----------|


                                                        ^                   ^            
  E  E  E   E     E  E  E  E     Q    E  E     E  E  E  E     E  E  Q       E  E  E  E   
---------------|--------------|--0----0--0--|--------------|-------------|--------------|
-----1--3p--1--|-----------1--|-------------|-----3-----1--|--L--0--L----|--0-----1--1--|
--------0------|--------2-----|-------------|-----------0--|--L----------|--0-----2--2--|
--------0------|-----2--------|-------------|--------2-----|-------------|-----------3--|
--3------------|--0-----------|-------------|-----2--------|-------------|-----3--------|
--------3------|--------------|-------------|--0-----------|-------------|--1--------1--|


                         *Thmb                                                           
  Q    E  E     E  E  E  E     E  E  Q       E  E  Q       E  E  E  E     E  E  Q     
----------1--|-----0--------|-------------|-------------|--------------|-------------|
--L----L-----|--------1--1--|--L--1--3----|--------1----|--3--1--3--1--|-------------|
--L----L-----|-----------0--|--L-----0----|--2-----0----|--------0-----|--0----------|
--L----L-----|--3-----------|--------0----|--3----------|--0-----------|--2-----2----|
-------------|--------------|-------------|-----3-------|--------------|-----2-------|
--L----L-----|--------1-----|--------3----|--1----------|--3-----------|--0----------|


                 ^             ^                                                       
  E  E  E  E     E  E  Q       E  E  E  E     E  E  E  E     E  E  Q       E  E  Q     
--------0--1--|--3----------|--------------|-----------0--|-----1--L----|-------------|
--1--3--------|--1-----1----|--1--------0--|--1--3--L--1--|-----1--L----|--------1----|
--2-----0-----|--------0----|--0-----0-----|--2--4--L-----|-------------|--2-----0----|
--------------|--3----------|-----0--------|--------------|-------------|--3----------|
--0-----------|-----3-------|--------------|--0-----------|--1----------|-----3-------|
--------------|-------------|--3-----------|--------------|-------------|--1----------|


                                              >     ^  ^                  >    ^  ^   
  E  E  E  E     E  E  Q       E  E  E  E     E  E  E  E      H           Q    E  E   
--------------|-------------|--------0--1--|--3-----------|------------|--3----------|
--3--1--3--1--|-------------|--1--3--------|--1-----1--1--|---L--------|--1----1--1--|
--------0-----|--0----------|--2-----0-----|--------------|------------|-------0--0--|
--0-----------|--2-----2----|--------------|--------3--3--|---L--------|--3----------|
--------------|-----2-------|--0-----------|-----3--------|------------|-------------|
--3-----------|--0----------|--------------|--1-----------|------------|-------------|


                                                                                   ^   
  H           E  E  E  E     E  E  E  E     E  E  E  E     Q    E  E       Q    E  E   
-----------|--0--------0--|--------0-----|--0-----------|-------------||-----------0--|
--L--------|-----3--------|--3--------3--|--------------|-------------||--------------|
--L--------|--0-----0-----|-----0--------|-----------2--|--1----L-----||*--2-------2--|
-----------|--------------|--------------|--------2-----|-------------||*-------2-----|
-----------|--------------|--------------|-----2--------|-------------||---0----------|
-----------|--3-----------|--------------|--0-----------|-------------||--------------|


                       ^                                                          
  Q    Q       Q    E  E     Q    Q       Q    E  E     Q    Q       E  E  E  E   
--L---------|----------0--|--L----4----|--4----5-----|------------|--2--0--L-----|
------------|-------------|------------|--3-------5--|--L---------|--3--------3--|
--L----2----|--1-------1--|--L---------|-------------|-------2----|--------------|
------------|--2----------|------------|--0----------|------------|--0-----------|
------------|-------2-----|------------|-------------|------------|--------------|
------------|--0----------|------------|-------------|------------|--------------|


                         ^                                                             
  E  E  Q       E  E  E  E     E  E  E  E     E  E  Q       Q    E  E     E  E  E  E   
-------------|--0-----------|--------2--0--|-------------|-------------|--------------|
-----2--3----|--------------|--------------|--------3----|--2----3--2--|-----------3--|
--------2----|-----------2--|--L-----------|-------------|-------------|-----2--L-----|
--0----------|--------2--2--|--L-----2-----|--------2----|-------2-----|-----4--------|
-------------|-----4--------|--------------|-----2-------|-------------|--------------|
-------------|--5-----------|-----5--------|--0----------|-------------|--2-----------|


               /Ending 1                        /Ending 2
  E  E  E  E     E  E  E  E     E  E  E   E       E  E  E  E     E  E  E  E   
--------------|--------------|----------------||--------------|-----0--2--4--|
--L--2-----3--|-----2--------|-----0----------||-----2-----3--|--------------|
--------2-----|--------2--2--|--------2p--1--*||--------2-----|-----1--2--4--|
-----------4--|-----------4--|--------2------*||-----------4--|--------------|
--------------|--5-----------|----------------||--5-----------|--------------|
--------------|--------------|--0-------------||--------------|--0-----------|


  E  E  E  E     E  E  Q       E  E  E  E     E  E  E  E     E  E  E  E     Q    E  E   
--5--------5--|--L----------|--------2-----|--------2-----|--------2-----|-------5--4--|
--------7-----|-----7-------|-----------3--|--L--------5--|-----------5--|--L----------|
--6--6--------|--------6----|-----2--------|-----2--------|-----2--------|-------6--4--|
--4-----------|-------------|--0-----------|--------------|--------------|-------------|
--------------|-------------|--------------|--------------|--4-----------|-------------|
--------------|-------------|--------------|--------------|--------------|-------------|


                                 ^                                   ^          ^     
  E  E  E  E     E  E  E   E     E  E  E  E     H           E  E  E  E     Q    Q     
-----2--L--0--|--L------------|--0-----------|-----------|--0-----------|------------|
--------------|-----3--2h--3--|--------------|-----------|--------------|-------0----|
-----2--L-----|---------------|-----------2--|--L--------|-----------2--|--L---------|
--4-----------|--------4------|-----0--4-----|-----------|--------0--2--|--L---------|
--------------|---------------|--2-----------|-----------|-----2--------|-------2----|
--------------|---------------|--------------|-----------|--0-----------|------------|


                                ^                            ^                      
  E  E  E  E     E  E  E  E     E  E  E  E     E  E  Q       H           H          
--------------|--------------|--------------|-------------|-----------|-----------||
--3--2-----3--|--2-----3--2--|-----3--2-----|-----0-------|--3--------|--L--------||
--------2-----|-----2--------|--2--------2--|--2-----2----|--2--------|--L--------||
--------------|--------------|--0-----------|-------------|--0--------|--L--------||
--------------|--------------|--------------|-------------|--x--------|-----------||
--3-----------|--------------|--------------|-------------|--3--------|--L--------||




Duration Legend
---------------
W - whole
H - half
Q - quarter
E - 8th
S - 16th
T - 32nd
X - 64th
. - note dotted
|-n-|  - n-tuplets


Tablature Legend
----------------
L - tied note
x - dead note
g - grace note
(n) - ghost note
> - accentuded note
NH - natural harmonic
AH - artificial harmonic
TH - tapped harmonic
SH - semi harmonic
PH - pitch harmonic
h - hammer on
p - pull off
b - bend
br - bendRelease
pb - preBend
pbr - preBendRelease
brb - bendReleaseBend
\n/ - tremolo bar dip
\n - tremolo bar dive
-/n - tremolo bar Release up
/n\ - tremolo bar inverted dip
/n - tremolo bar return
-\n - tremolo bar Release down
S - shift slide
s - legato slide
/ -  slide into from below or out of upwards
\ -  slide into from above or out of downwards
~ - vibrato
W - wide vibrato
tr - trill
TP - tremolo picking
T - tapping
S - slap
P - pop
< - fade in
^ - brush up
v - brush down

        
Comments

@PcePce (October 13, 2018 at 6:00 AM)

Thanks for tabbing all these MechaKrauser :)