Gametabs
Home
Tabs
Random

Senjogahara, Tore

Average rating: 5.000

14 ratings

Composer:

Tabber:

Style:

Instrument:

Created: November 14, 2013 at 12:00 AM

            Tuning: EADGBE
Note: While arranged in standard tuning, some of the stretches needed are pretty hard so I tune my guitar down two steps and put a capo on 2.


     E  E  E  S E.  E  E  E     E  E  E  S E.  E  E  E   
E||--------0--0-0------0-----|-------------0------0--2--|
B||-----------------4-----0--|--------0--0-----4--------|
G||--------2-----------------|--------2-----------------|
D||-----2--------------------|-----2--------------------|
A||--0-----------------------|--0-----------------------|
E||--------------------------|--------------------------|


  E  E  E  S E.  E  E  E     E  E  E  S E.  E  E  E   
--------0--0-0------0-----|-------------0---2--4--0--|
-----------------4-----0--|--------0--0--------------|
--------1-----------------|--------1-----------------|
-----2--------------------|-----2--------------------|
--------------------------|--------------------------|
--4-----------------------|--4-----------------------|


  E  E  E  S E.  E  E  E     E  E  E  S E.  E  E  E     E  E  E  Q    Q    E   
--------0--0-0------0-----|-------------0---2--4--5--|--4--0-----0------------|
-----------------4-----0--|--------0--0--------------|--------4-------2-------|
--------2-----------------|--------2-----------------|-----1---------------1--|
--------------------------|-----4--------------------|------------------------|
-----4--------------------|--2-----------------------|--4---------------------|
--2-----------------------|--------------------------|------------------------|


   Q     Q    Q    Q       E  E  E  S E.  E  E  E     E  E  E  S E.  E  E  E   
--12----11----7----0----|--------0--0-0------0-----|-------------0------0--2--|
---9-----9--------------|-----------------4-----0--|--------0--0-----4--------|
--------------9---------|--------2-----------------|--------2-----------------|
-------------------9----|-----2--------------------|-----2--------------------|
------------------------|--0-----------------------|--0-----------------------|
---9----------7---------|--------------------------|--------------------------|


  E  E  E  S E.  E  E  E     E  E  E  S E.  E  E  E   
--------0--0-0------0-----|-------------0---2--4--0--|
-----------------4-----0--|--------0--0--------------|
--------1-----------------|--------1-----------------|
-----2--------------------|-----2--------------------|
--------------------------|--------------------------|
--4-----------------------|--4-----------------------|


  E  E  E  S E.  E  E  E     E  E  E  S E.  E  E  E     E  E  E  Q    Q    E   
--------0--0-0------0-----|-------------0---2--4--5--|--4--0-----0------------|
-----------------4-----0--|--------0--0--------------|--------4-------2-------|
--------2-----------------|--------2-----------------|-----1---------------1--|
--------------------------|-----4--------------------|------------------------|
-----4--------------------|--2-----------------------|--4---------------------|
--2-----------------------|--------------------------|------------------------|


   Q     Q    Q    Q       E  E  E  S E.  E  E  E     E  E  E  S E.  E  E  E   
--12----11----7----0----|--------0--0-0------0-----|-------------0------0--2--|
---9-----9--------------|-----------------4-----0--|--------0--0-----4--------|
--------------9---------|--------2-----------------|--------2-----------------|
-------------------9----|-----2--------------------|-----2--------------------|
------------------------|--0-----------------------|--0-----------------------|
---9----------7---------|--------------------------|--------------------------|


  E  E  E  S E.  E  E  E     E  E  E  S E.  E  E  E     E  E  E  H        E   
--------0--0-0------0-----|-------------0---2--4--5--|--7--------0--------0--|
-----------------4-----0--|--------0--0--------------|--0--------------------|
--------1-----------------|--------1-----------------|-----------2-----------|
-----2--------------------|-----2--------------------|--------4--------------|
--------------------------|--------------------------|-----4-----0-----------|
--4-----------------------|--4-----------------------|--2--------------------|


  E  E  E  H        E     E  E  E  Q    E  E  E     E  E  E  Q    E  E  E   
--7--------0--------0--|-------------------------|--2--4--5--4----4--2--0--|
-----------0-----------|--7-----4--5----4--------|-----------0-------------|
-----------------------|-------------------4-----|--2----------------------|
--------7--------------|-----6-------------------|--0--------2-------------|
-----9-----------------|--4-------------------4--|-------------------------|
--7--------7-----------|-------------------------|-------------------------|


  E  E  E  S S E  Q    S  S    E  S E  S E  E  E  E  E   
--------5--5-5----4----2p-0-|--2--0-2--0-4-----0--2--0--|
--------2--2-2--------------|------------0--------------|
--------2-------------------|--2----2-------------------|
-----2----------------------|---------------------------|
--0-------------------------|---------------------------|
---------------4------------|--2------------4-----------|


  E  E  E  S S E  Q    S S    E  S E  S E  E  E  E  E   
--------5--5-7----0--------|------------0-----0--2--4--|
--------2--2-0---------0-0-|--0--0-0--0----------------|
--------2------------------|---------------------------|
-----2---------------------|---------------------------|
--0------------------------|---------------------------|
---------------4-----------|--2------------4-----------|


  E  E  E  S S E  Q    S  S    E  S E  S E  E  E  E  E   
--------5--5-5----4----2p-0-|--2--0-2--0-4-----0--2--0--|
--------2--2-2--------------|------------0--------------|
--------2-------------------|--2----2-------------------|
-----2----------------------|---------------------------|
--0-------------------------|---------------------------|
---------------4------------|--2------------4-----------|


  E  E  E  Q.     E  E     E  E  E  H        E     H        Q    S  S S  S  
-----------3------0-----|-----------5--------L--|--0------------------4h-5-|
--1--------1---------1--|--3-----3--------------|-----------4----5h-7------|
--0-----0--0------------|--2--2-----2--------L--|--2--------4--------------|
-----2------------------|--0--------0--------L--|-----------4--------------|
--0--------3------------|-----------------------|--2--------2--------------|
------------------------|-----------------------|--------------------------|


  E  S E  S H        S S    E  S E  S Q.     S  S  E   
--7--0----0-7--------7-7-|--7--0------0------0h-2h-4--|
-------4-----------------|----------7-----------------|
------------6------------|-------8--------------------|
-------------------------|----------------------------|
------------0------------|------------4---------------|
--0----------------------|--7-------------------------|


  Q    S  S  E  E  S E.  E     E  E  E  Q.     S  S S  S  
--4----0h-2h-4--5--4-0------|--0--2--4--2-----------4h-5-|
--0-------------2--------0--|-----------4------5h-7------|
-------------------------1--|----------------------------|
----------------------------|----------------------------|
----------------0-----------|--2--------2----------------|
--4-------------------------|----------------------------|


  E  S E  S H        S S    E  S E  S Q.     S  S  E   
--7--0----0-7--------7-7-|--7--0------0------0h-2h-4--|
-------4-----------------|----------7-----------------|
------------6------------|-------8--------------------|
-------------------------|----------------------------|
------------0------------|------------4---------------|
--0----------------------|--7-------------------------|


  Q    S  S  E  E  S E.  E     E  E  E  Q    E  E  E   
--4----0h-2h-4--5--4-0------|--0--2--4--2----2--4--5--|
--0-------------2--------0--|-----------4-------------|
-------------------------1--|-------------------------|
----------------------------|-------------------------|
----------------0-----------|--2--------2-------------|
--4-------------------------|-------------------------|


  E  E  E  E  E  E  E  E     Q    E  Q    Q    E     E  E  E  E  E  E  E  E   
--7--------0-----------7--|--8----4--2----4-------|-----0-----------0-----9--|
--0--------0-----------0--|---------------1----7--|-----------4-----0--------|
--------------------------|-----------------------|--------6-----1-----1-----|
--------6--------6--------|----------1------------|-----6--------------------|
-----7--------7-----------|-----------------------|--4--------2--------------|
--4-----------------4-----|--4--------------------|-----------------------6--|


                                ^                           ^            
  E  E  E  E  E  Q.        Q    Q.     E  S E.     E  E  E  H        E   
------------------------|-------0------0--0-0---|--2--4--5--7-----------|
------------------------|-------2---------------|-----------5--------0--|
-----6-----6------------|-----------------------|-----------------------|
--------6-----6---------|-------2---------------|-----------------------|
--9--------------9------|--L----0---------------|-----------------------|
------------------------|-----------------------|-----------7-----------|


              ^                                     ^                  
  E  E  E  E  E  E  E  E     E  E  Q    H           W                  
--5--4--0--2--0-----------|-------------0--------|--0----------------||
--------------2--------0--|--2-----2-------------|--0----------------||
--------------2-----2-----|-----2----------------|--1----------------||
--------------2--2--------|----------------------|--2----------------||
--------------0-----------|----------------------|--2----------------||
--------------------------|----------------------|--0----------------||




Duration Legend
---------------
W - whole
H - half
Q - quarter
E - 8th
S - 16th
T - 32nd
X - 64th
. - note dotted
|-n-|  - n-tuplets


Tablature Legend
----------------
L - tied note
x - dead note
g - grace note
(n) - ghost note
> - accentuded note
NH - natural harmonic
AH - artificial harmonic
TH - tapped harmonic
SH - semi harmonic
PH - pitch harmonic
h - hammer on
p - pull off
b - bend
br - bendRelease
pb - preBend
pbr - preBendRelease
brb - bendReleaseBend
\n/ - tremolo bar dip
\n - tremolo bar dive
-/n - tremolo bar Release up
/n\ - tremolo bar inverted dip
/n - tremolo bar return
-\n - tremolo bar Release down
S - shift slide
s - legato slide
/ -  slide into from below or out of upwards
\ -  slide into from above or out of downwards
~ - vibrato
W - wide vibrato
tr - trill
TP - tremolo picking
T - tapping
S - slap
P - pop
< - fade in
^ - brush up
v - brush down
        
Comments

@auriplane (November 15, 2013 at 2:27 AM)

So is EADGBD a typo, then? Should I edit it to say EADGBE at the top?


@RaisonDetrah (February 23, 2014 at 11:14 AM)

That 7 on e to 2 on E is damn hard! Anyway good job with the tab, been wanting this done for a while.


@Swag Sea (June 16, 2015 at 5:32 AM)

Awesome