Gametabs
Home
Tabs
Random

Kimi no Shiranai Monogatari

Average rating: 3.333

6 ratings

Composer:

Tabber:

Style:

Instrument:

Created: September 26, 2013 at 12:00 AM

            Kimi no Shiranai Monogatari (ED)
Bakemonogatari
supercell
corntastic
25  2013


Intro

e-----------------------------------------------------------------------------------
B-----------------------------------------------------------------9--10-9-10-12-10--
G--9-9-9-9-9-9-9-9-7-6------9-9-9-9-9-9-9-9-7-6-------6-----7--9--------------------
D----------------------9--9---------------------9--7-----9--------------------------
A-----------------------------------------------------------------------------------
E-----------------------------------------------------------------------------------

__________________________________________________________________________________________


e----------------------------------------------------------------------------
B-----------------------------------------------------10--9--10--10---9-7----
G--9-9-9-9-9-9-9-9-7-6------6-6-6-6-7-6---6-7-6---------------------------9--
D----------------------9--9---------------------9--7-------------------------
A----------------------------------------------------------------------------
E----------------------------------------------------------------------------

e-----------------------------------------------------------------------------
B-----------------------------------------------------------------------------
G--9-9-9-9-9-9-9-9-7-6------6-6-6-6-7-6---6-7-6-------6--9--6-----6-----------
D----------------------9--9---------------------9--7-----------9-----9--7--7--
A-----------------------------------------------------------------------------
E-----------------------------------------------------------------------------


e-------------------------------------------------------7-9--7-10-9--------
B----10-9-10------------------------7----9-----10----10-------------10-----
G--9---------9--7-6-7-9-----7--6------------9------------------------------
D-----------------------7-7------7-----------------------------------------
A--------------------------------------------------------------------------
E--------------------------------------------------------------------------

e----10-9-7----7------9-7---------------7-9--7-7--7-10-10g9-7.------------
B-----------10------------10-9-10----10------------------------10---------
G--9----------------9-----------------------------------------------------
D-------------------------------------------------------------------------
A-------------------------------------------------------------------------
E-------------------------------------------------------------------------

e----10-9-7----7------9-7------------------------------------9------------
B-----------10------------10-9-9g7------9-9g10------10-10g12--------------
G--9----------------9-----------------7-----------9-----------------------
D-------------------------------------------------------------------------
A-------------------------------------------------------------------------
E-------------------------------------------------------------------------

e-------------------------------------------------------------------------
B----10--9-10--12-12g10----(14)-------------------------------------------
G--9----------------------------------------------------------------------
D-------------------------------------------------------------------------
A-------------------------------------------------------------------------
E-------------------------------------------------------------------------

Start over, and only play the parantheses the second time

___________________________________________________________________________________


e-----------------------------------------------------------10-9-----------
B--9-7-9-7-9-7-9-7-9-7-9-10-10--10-9-10-9-10-9-10-9-10-9-10---------9------
G----------------------------------------------------------------------11--
D--------------------------------------------------------------------------
A--------------------------------------------------------------------------
E--------------------------------------------------------------------------

e----------------------------------------------9---------------------------
B------------------------------------9-10--------12-10-12------------------
G--9-9-9-9-9-9-11-11-11-11-11-11-11--------9-9-----------------------------
D--------------------------------------------------------------------------
A--------------------------------------------------------------------------
E--------------------------------------------------------------------------

e-------------------------------------------------------------------------
B--10-12-10-12Lb14--10--12--10----10h14-12--------------------------------
G-------------------------------------------------------------------------
D-------------------------------------------------------------------------
A-------------------------------------------------------------------------
E-------------------------------------------------------------------------



e-------------------------------------------------------------------------
B-------------------------------------------------------------------------
G-------9-9---------------------------9-9---------------------------------
D--7-----------7--9----11-9-7----7-----------7--9----11-9-9g7-------------
A-------------------------------------------------------------------------
E-------------------------------------------------------------------------

e------------------------9-10-9-------------------------------------------
B-------9-10-------12-----------------------------------------------------
G--9------------9-----------------------9-9-------------------------------
D----------------------------------7-----------7--9----11-9-9g7-----------
A-------------------------------------------------------------------------
E-------------------------------------------------------------------------

e----10-9-7----7------9-7----------------------------9----10-9------------
B-----------10------------10-9-9g7----9----9-10---------------------------
G--9----------------9------------------------------9----------------------
D-------------------------------------------------------------------------
A-------------------------------------------------------------------------
E-------------------------------------------------------------------------

e----10-9-7----7------9-7---------------7-9--7-7--7-10-10g9-7.------------
B-----------10------------10-9-10----10------------------------10---------
G--9----------------9-----------------------------------------------------
D-------------------------------------------------------------------------
A-------------------------------------------------------------------------
E-------------------------------------------------------------------------

e----10-9-7----7------9-7---------------9-7-9-10-9-------9-7-9-10-9-------
B-----------10------------10-9-10----10---------------10------------------
G--9----------------9-----------------------------------------------------
D-------------------------------------------------------------------------
A-------------------------------------------------------------------------
E-------------------------------------------------------------------------

e----9-7--------------9-7-9-10-9--------------7-9--7--10g9-9--------------
B--------10-9-10----------------------10-9-10-----------------------------
G--9----------------9---------------9-------------------------------------
D-------------------------------------------------------------------------
A-------------------------------------------------------------------------
E-------------------------------------------------------------------------

e----10-9-7----7------9-7-------------------------------------------------
B-----------10------------10-9-9g7----9-9g10------10--12h14---------------
G--9----------------9---------------------------9-------------------------
D-------------------------------------------------------------------------
A-------------------------------------------------------------------------
E-------------------------------------------------------------------------

e----9--10-9--7--7-7------------------------------------------------------
B--------------------10---------------------------------------------------
G--9----------------------------------------------------------------------
D-------------------------------------------------------------------------
A-------------------------------------------------------------------------
E-------------------------------------------------------------------------
        
Comments

@Basisti94 (September 27, 2013 at 4:17 PM)

Is there someone deliberately downvoting your tabs? I guess you could make rhythm bit clearer and mention in the beginning that what you tabbed is the vocal part but I don't really see the problem. I played it through once and unless my ears are off, there was perhaps few wrong notes in there, but nothing serious.

Also, Kimi No Shiranai Monogatari is one of my favourite songs :P That vocal melody in chorus is surprisingly fun to play.