Gametabs
Home
Tabs
Random

Kaerimichi

Average rating: 3.500

4 ratings

Composer:

Tabber:

Style:

Instrument:

Created: October 18, 2013 at 12:00 AM

            Kaerimichi
Bakemonogatari
Kana Hanazawa, Katou Emiri
corntastic
17 10 2013


e----4------------4------------4-----------------------2------------------
B--2---2-2--2---2---2-2--2---2---2-2-2-2-0-2-0-2--5--5--------------------
G-------------------------------------------------------------------------
D-------------------------------------------------------------------------
A-------------------------------------------------------------------------
E-------------------------------------------------------------------------

e----4------------4------------4------------------------------------------
B--2---2-2--2---2---2-2--2---2---2-2-2-2-0-2-0-2--5--5-4------------------
G-------------------------------------------------------------------------
D-------------------------------------------------------------------------
A-------------------------------------------------------------------------
E-------------------------------------------------------------------------

__________________________________________________________________________________________x2


e----1-2--1------------1-2-4--2--1----------1-----------------------------
B--4--------4--2--1----------------4-3--3-4-------------------------------
G-------------------------------------------------------------------------
D-------------------------------------------------------------------------
A-------------------------------------------------------------------------
E-------------------------------------------------------------------------

e-------------------------2-4-5-4-4--4-4--4-4--5--5-5--(6--6-6-6-6)*------ < skip this *
B--2---1-2--4-5--5-2-4-5--------------------------------------------------
G----3--------------------------------------------------------------------
D-------------------------------------------------------------------------
A-------------------------------------------------------------------------
E-------------------------------------------------------------------------

e-------6-6-5-5-------3--5----6--------6-6-5-3----------------------------
B--6--6---------6-6-6------------4-4-4---------6--------------------------
G-------------------------------------------------------------------------
D-------------------------------------------------------------------------
A-------------------------------------------------------------------------
E-------------------------------------------------------------------------

e--------3--5-6--5-3-5-3----------4--------5-6-8--------------------------
B--6-6-6--------------------7-7-7---7-6--8--------------------------------
G-------------------------------------------------------------------------
D-------------------------------------------------------------------------
A-------------------------------------------------------------------------
E-------------------------------------------------------------------------

e-------6-6-5-5-------3--5----6--------6-6-5-3----------------------------
B--6--6---------6-6-6------------4-4-4---------6--------------------------
G-------------------------------------------------------------------------
D-------------------------------------------------------------------------
A-------------------------------------------------------------------------
E-------------------------------------------------------------------------

e--------3--5-6--5-3-5-3------6------5-6-8-5-6.--4--4--2--2-4--6-6--4--4--2--2-4-18s0--
B--6-6-6-----------------6-4-----6-8---------------------------------------------------
G--------------------------------------------------------------------------------------
D--------------------------------------------------------------------------------------
A--------------------------------------------------------------------------------------
E--------------------------------------------------------------------------------------

repeat, then start from the top of this section and play the * section and the rest 1 note up.
__________________________________________________________________________________________

        
Comments

No comments yet