Gametabs
Home
Tabs
Random

Kowarekake no Chabudai

Average rating: 5.000

1 ratings

Composer:

Tabber:

Style:

Instrument:

Created: October 28, 2017 at 12:00 AM

                                        Kowarekake no Chabudai

For a transcription of each instrument go here
https://community.gametabs.net/t/1867/3

     E  E  E  E  E  E     E  E  E  E  E  E     E  E  E  E  E  E   
E||--------------------|--------------------|--------------------|
B||--------------------|--------------------|--------------------|
G||-----------0--------|-----------0--------|-----------0--------|
D||--------0-----0-----|--------0-----0-----|--------0-----0-----|
A||-----1-----------1--|-----1-----------1--|-----1-----------1--|
E||--3-----------------|--3-----------------|--3-----------------|


  E  E  E  E  E  E     E  E  E  E  E  E     E   E  E  E  E  E   
--------------------|--------------------|---------------------|
--------------------|--------------------|---------------------|
-----------0--0--2--|--3--------0--2--3--|--3S--5-----------2--|
--------0-----0-----|--------0-----0-----|---------0--4--0-----|
-----1-----------1--|-----1-----------1--|------3-----------0--|
--3-----------------|--3-----------------|--2------------------|


  E  E  S S E  E  E     E  E  E  E  E  E     E  E  E  E  E  E   
---------------------|--------------------|--------------------|
---------------------|--------------------|-----------------1--|
--2-----3-2-0--------|-----------0--0--2--|--3--------0--3-----|
--------0------0-----|--------0-----0-----|--------0-----0-----|
-----1------------1--|-----1-----------1--|-----1-----------1--|
--3------------------|--3-----------------|--3-----------------|


  E  E  E  E  E  E     E  E  S S E  E  E     E  E  E  E  E  E   
--------------4--3--|---------------------|--------------------|
--3-----------------|--6-----4-3-4--------|--------------------|
-----------0--------|--------5------5-----|--------5--5--4--5--|
--------3-----3-----|-----5------------5--|-----5--------5-----|
-----2-----------2--|--3------------------|--3--------------3--|
--3-----------------|---------------------|--------------------|


                 |-3-|                                            
  E  E  E  E  E  S S S    E  E  E  E  E  E     E  E  E  E  E  E   
--1--------------1-0-1-|--5--------3-----1--|--------------------|
-----------------------|--------------------|--4--------3--------|
-----------2-----------|-----------2--------|-----------3--------|
--------3-----3--------|--------3-----3-----|-----0--3-----3--0--|
-----3-----------3-----|-----3-----------3--|--1-----------------|
--1--------------------|--1-----------------|--------------------|


  E  E  E  E  E  E     E  E  E  E  E  E     E  E  E  E  E  E   
--------------------|--------------------|--------------------|
-----------------3--|--------------------|--4-----------------|
-----------3--3-----|--5--------5--5--7--|-----------5--7--5--|
-----0--3-----3--0--|--------6-----6-----|--------6-----6-----|
--1-----------------|-----6-----------6--|-----6-----------6--|
--------------------|--4-----------------|--4-----------------|


  E  E  E  E  E  E     E  E  E  E  E  E     E  E  E  E  E  E   
-----------3--------|-----------2--------|--------------------|
--3-----3-----3-----|--------3-----------|--------------------|
-----2-----------2--|-----2--------0--2--|--3--------0--2--3--|
--0-----------------|--0-----------------|--------0-----0-----|
--------------------|--------------------|-----1-----------1--|
--------------------|--------------------|--3-----------------|


  E   E  E  E  E  E     E  E  S S E  E  E     E  E  E  E  E  E   
---------------------|---------------------|--------------------|
---------------------|---------------------|--------------------|
--3S--5-----------2--|--2-----3-2-0--------|-----------0--0--2--|
---------0--4--0-----|--------0------0-----|--------0-----0-----|
------3-----------0--|-----1------------1--|-----1-----------1--|
--2------------------|--3------------------|--3-----------------|


  E  E  E  E  E  E     E  E  E  E  E  S S    E  E  S S E  E  E   
--------------------|--------------4----3-|--------3------------|
-----------------1--|--3--------3---------|--6-------6-4--------|
--3--------0--3-----|-----------0---------|---------------5-----|
--------0-----0-----|--------3-----3------|-----5------------5--|
-----1-----------1--|-----2-----------2---|--3------------------|
--3-----------------|--3------------------|---------------------|


  E  E  E  E.  S E     E  E  E  E  S S S S    E  E  E  E  E  S S  
--------------------|--1-----------3-1-0-1-|--5--------3--1------|
--------------------|----------------------|-------------------4-|
--------5--5---4-5--|-----------2----------|-----------2---------|
-----5-----------5--|--------3-------------|--------1-----1------|
--3-----------------|-----3----------------|-----3-----------3---|
--------------------|--1-------------------|--1------------------|


  E  E  S  S E  E  E     E  E  E  E  S S E     E  E  E  E  E  S  S  
----------------------|---------------------|----------------------|
--4-----6p-4-3--------|---------------------|----------------------|
-------------3--------|-----------3----2-3--|--0-----0--3--0--2h-3-|
-----0--3-------3-----|--------0-----0------|-----2-----------2----|
--1----------------5--|-----1------------1--|--4-------------------|
----------------------|--3------------------|----------------------|


  E  E  E  E  E  S S    E  E  S S E  E  E     S S S S S S S S S S S S  
---------------------|---------------------|------------------------1-|
---------------------|---------------------|------------1-3-0-1-3-4---|
--2-----2--5--2--0---|--2-----3-2-0--0--0--|--0---0-2-3---------------|
-----4-------------4-|--------0------------|----4---------------------|
--5------------------|-----1---------------|--------------------------|
---------------------|--3------------------|--------------------------|


  E  E  E  E  E  E     E  E  E  E  E  E     E  E  E  E  E  E   
--3--------3--2--3--|-----------3--5--6--|--5-----------------|
-----------4--3--4--|-----------4--------|-----------6--------|
--------5-----------|--------5-----------|--------5-----5-----|
-----5--------------|-----5--------------|-----7-----------7--|
--3-----------------|--3-----------------|--8-----------------|
--------------------|--------------------|--------------------|


  E  E  E  E  E  E     E  E  E  E  E  E     E  E  E  E  E  E   
--5-----------------|--------------------|--------------------|
-----------8--------|-----------6--5--6--|-----------------6--|
--------5-----5-----|-----------7--6--7--|-----------7--8-----|
-----7-----------7--|--------8-----------|--------8--8--------|
--8-----------------|-----8--------------|-----8--------8-----|
--------------------|--6-----------------|--6--------------6--|


   E   E  E  E  E   E      E   E  E  E  E  E     E  E  E  E  E  E   
-----------------------|----------------------|--------------------|
---8-------------------|----------------------|--1--------1--0--1--|
-------------8---------|---8---------7--8--7--|--------0-----0-----|
----------8-----8------|----------8-----------|-----1-----------1--|
------10-----------10--|------10--------------|--3-----------------|
--11-------------------|--11------------------|--------------------|


  E  E  E  E  E  E     E  E  E  E  E  E     E  E  E  E  E  E   
--3-----------------|--------------------|--3-----------------|
-----------1--------|-----------1--0--1--|-----------1--------|
--------0-----0-----|--------0-----0-----|--------0-----0-----|
-----1-----------1--|-----1-----------1--|-----1-----------1--|
--3-----------------|--1-----------------|--1-----------------|
--------------------|--------------------|--------------------|


  E  E  E  E  E  E     E  E  E  E  E  E     E  E  E  E  E  E     H.            
--------------------|--5--------3--------|--3--------2--------|--2------------|
-----------1--1-----|-----------1--------|--------1--3--1-----|--1------------|
--------0-----0-----|--------0-----0-----|-----2-----------2--|--2------------|
-----1-----------1--|-----1-----------1--|--0-----------------|--0------------|
--0-----------------|--0-----------------|--------------------|---------------|
--------------------|--------------------|--------------------|---------------|


  H        E  E     H        E  E     E  E  E  E  E  E     E  E  E  E  E  E   
-----------------|-----------------|--------------------|--------------------|
-----------------|-----------------|--------------------|--------------------|
--3--------2--0--|--2--------0-----|--0--------0--------|-----------0--------|
--5--------------|--4-----------4--|--------0-----0-----|--------0-----0-----|
--4--------------|--5--------------|-----1-----------1--|-----1-----------1--|
-----------------|-----------------|--3-----------------|--3-----------------|


  H.             
---------------||
---------------||
--0------------||
--0------------||
--1------------||
--3------------||
        
Comments

No comments yet