Gametabs
Home
Tabs
Random

Yaseta wa yo, Mune kara ne

Average rating: 5.000

2 ratings

Composer:

Tabber:

Style:

Instrument:

Created: May 15, 2017 at 12:00 AM

                           Bake and Test season 2, song 10 (guitar version)                 


Acoustic Guitar
     Q.     E  E  E     Q    E  E  E  E     Q    E  E  E  E     Q    Q    E  E   
E||------------------|--2-------2--------|----------------2--|--2---------0-----|
B||---------------3--|-------3-----3-----|-------3-----------|---------------3--|
G||------------4-----|-------4--------4--|-------4-----4-----|-------0----------|
D||---------4--------|-------4-----------|--4----4--4--------|-------2----------|
A||------------------|--2----------------|-------------------|--4---------------|
E||------------------|-------------------|--2----------------|------------------|


  Q    Q    E  E     Q    E  E  E  E     Q    Q    Q       Q    Q    E  E   
--0---------------|--0-------0--------|------------0----|--0------------0--|
------------2--3--|-------------2-----|-----------------|-------3----3-----|
-------0----------|-------3--------3--|-------3---------|-------4----------|
-------2----------|-------2-----------|--4----4---------|-------4----------|
------------------|-------4-----------|-------4---------|--2---------------|
--3---------------|--2----------------|--2--------------|------------------|


                             tr                                                   
  Q    E  E  E  E       Q    H              Q    E   E  E  E     Q    Q    E  E   
--2-------------2--|--5g7----7(8)--------|--7-----------------|--5---------3--2--|
-------3-----3-----|---------7-----------|-------7--10--8--7--|-------0----------|
-------4--4--------|---------8-----------|-------8------------|-------0----------|
-------4-----------|---------7-----------|-------7------------|-------2----------|
-------------------|---------------------|--------------------|------------------|
--2----------------|----7----------------|--7-----------------|--0---------------|


  Q    Q    E  E     Q    H           Q    E  E  E  E     Q    Q    Q     
--3------------0--|----------------|-------------------|-----------------|
-------0----0-----|--3-------------|--2-------------2--|--0--------------|
-------0----------|-------1--------|-------1-----1-----|-----------------|
-------2----------|-------3--------|-------3--3--------|-----------------|
------------------|----------------|-------------------|-------2---------|
--0---------------|--1-------------|--1----------------|--2---------4----|


  Q.     E  E  E     E  E  E  E  Q       E  E  E  E  E  E     E  E  E  E  Q     
------------------|--2-----------3----|--0-----------------|--0-----------2----|
------------0--3--|-----0-------------|-----2-----------2--|-----3-------------|
--3---------------|--------0----------|--------2-----2-----|--------2----------|
--4------4--------|-----------2-------|-----------2--------|--0--------4-------|
--4---------------|-------------------|--0-----------------|-------------------|
--2---------------|--0----------------|--------------------|-------------------|


  E  E  E  E  E  E     E  E  E  E  Q       E  E  E  E  Q       E  E  E  E  E  E   
--------------------|--------------0----|-------------------|--0-----------------|
--3--------------0--|--3----------------|--2-----------3----|-----------2--------|
-----0--------0-----|-----0-------------|-----3-------------|--------4-----4-----|
--------0--0--------|--------2----------|--------4----------|-----4-----------4--|
-----------2--------|--4--------4-------|-----------4-------|--2-----------------|
--3-----------------|-------------------|--2----------------|--------------------|


  Q.     E  E  E     E  E  E  E  Q       E  E  E  E  E  E     E  E  E  E  Q     
--2---------------|--2-----------3----|--0--------------0--|--5-----------2----|
--4------------3--|-----0-------------|-----2--------2-----|-----3-------------|
--2---------4-----|--------0----------|--------2--2--------|--------2----------|
--4------4--------|-----------2-------|-----------2--------|--0--------4-------|
--2---------------|-------------------|--0-----------------|-------------------|
------------------|--0----------------|--------------------|-------------------|


  E  E  E  E  E  E     E  E  Q.     E     E  E  Q.     E     E  E  E  E  E  E   
--------------------|------------------|------------------|--------------------|
--3-----------0--2--|--3-----2------0--|--3-----2------0--|--2-----------------|
-----0--------------|--------0---------|--------1---------|--------------4-----|
--------0-----------|--------0---------|-----0------------|--------4--------4--|
-----------2--------|-----2------------|------------------|-----4-----4--------|
--3-----------------|--0---------------|--1---------------|--2-----------------|


  Q    Q    Q       H.              Q.     E  E  E     E  E  Q    Q     
-----------------|---------------|------------------|--2----------3----|
--2---------2----|--2------------|---------------3--|------------------|
-------4---------|--3------------|------------4-----|--------0---------|
-----------------|--4------------|---------4--------|-----2------------|
-----------------|--4------------|------------------|------------------|
-----------------|--2------------|------------------|--0---------------|


  E  E  E  E  E  E     E  E  Q    Q       E  E  E  E  E  E     E  E  Q    Q     
--0-----------------|--0----------2----|--------------------|-------------0----|
-----------------2--|------------------|--3--------------0--|--3---------------|
--------2-----2-----|--------2---------|--------0-----0-----|--------0---------|
-----2-----2--------|-----4------------|-----------0--------|-----2------------|
--0-----------------|--5---------------|-----2--------------|--4---------------|
--------------------|------------------|--3-----------------|------------------|


  E  E  E  E  E  E     E  E  E  E  E  E     Q    Q    Q       E  E  E  E  E  E   
--------------------|--------------------|------------2----|--2--------3--2--0--|
--2-----------0--2--|--2--------2-----2--|--4----5---------|--------------------|
--------3-----------|--------2-----4-----|--2----2---------|--------0-----------|
-----------4--------|-----4-----------4--|--4---------4----|-----2--------------|
-----4--------------|--2-----------------|--2--------------|--------------------|
--2-----------------|--------------------|-----------------|--0-----------------|


  E  E  Q      Q       E  E  Q    Q       E  E  Q    E  E     H.            
--0----------5g7----|--5---------------|-------------------|---------------|
--------------------|-------------2----|--3----------0--2--|--3------------|
--------2-----------|--------2---------|--------4----------|--0------------|
-----2--------------|-----2------------|-----4-------------|--2------------|
--0-----------------|------------------|--2----------------|--2------------|
--------------------|--2---------------|-------------------|--0------------|


  H        Q       E  E  E  E  Q       E  E  E  E  Q       H.             
----------------|-------------------|-------------------|---------------||
--2-------------|--------3-----3----|--------2--0--2----|--0------------||
--3--------3----|--4--------4-------|--0----------------|---------------||
--2-------------|-----4--4-----4----|-----2-------------|--0------------||
--4-------------|--2----------------|--2----------------|--2------------||
--2-------------|-------------------|-------------------|---------------||




Duration Legend
---------------
W - whole
H - half
Q - quarter
E - 8th
S - 16th
T - 32nd
X - 64th
. - note dotted
|-n-|  - n-tuplets


Tablature Legend
----------------
L - tied note
x - dead note
g - grace note
(n) - ghost note
> - accentuded note
NH - natural harmonic
AH - artificial harmonic
TH - tapped harmonic
SH - semi harmonic
PH - pitch harmonic
h - hammer on
p - pull off
b - bend
br - bendRelease
pb - preBend
pbr - preBendRelease
brb - bendReleaseBend
\n/ - tremolo bar dip
\n - tremolo bar dive
-/n - tremolo bar Release up
/n\ - tremolo bar inverted dip
/n - tremolo bar return
-\n - tremolo bar Release down
S - shift slide
s - legato slide
/ -  slide into from below or out of upwards
\ -  slide into from above or out of downwards
~ - vibrato
W - wide vibrato
tr - trill
TP - tremolo picking
T - tapping
S - slap
P - pop
< - fade in
^ - brush up
v - brush down

        
Comments

@thedstring (May 22, 2017 at 1:24 AM)

This was pretty bad ass =)